  0
SECTION
  2
HEADER
  9
$ACADVER
  1
AC1018
  9
$ACADMAINTVER
 70
     0
  9
$DWGCODEPAGE
  3
ANSI_1252
  9
$INSBASE
 10
0.0
 20
0.0
 30
0.0
  9
$EXTMIN
 10
-0.5
 20
-0.5
 30
-0.5
  9
$EXTMAX
 10
5.0
 20
5.0
 30
5.0
  9
$LIMMIN
 10
-0.5
 20
-0.5
  9
$LIMMAX
 10
5.0
 20
5.0
  9
$ORTHOMODE
 70
     0
  9
$REGENMODE
 70
     1
  9
$FILLMODE
 70
     1
  9
$QTEXTMODE
 70
     0
  9
$MIRRTEXT
 70
     1
  9
$LTSCALE
 40
1.0
  9
$ATTMODE
 70
     1
  9
$TEXTSIZE
 40
0.2
  9
$TRACEWID
 40
0.05
  9
$TEXTSTYLE
  7
Standard
  9
$CLAYER
  8
0
  9
$CELTYPE
  6
ByLayer
  9
$CECOLOR
 62
   256
  9
$CELTSCALE
 40
1.0
  9
$DISPSILH
 70
     0
  9
$DIMSCALE
 40
1.0
  9
$DIMASZ
 40
0.18
  9
$DIMEXO
 40
0.0625
  9
$DIMDLI
 40
0.38
  9
$DIMRND
 40
0.0
  9
$DIMDLE
 40
0.0
  9
$DIMEXE
 40
0.18
  9
$DIMTP
 40
0.0
  9
$DIMTM
 40
0.0
  9
$DIMTXT
 40
0.18
  9
$DIMCEN
 40
0.09
  9
$DIMTSZ
 40
0.0
  9
$DIMTOL
 70
     0
  9
$DIMLIM
 70
     0
  9
$DIMTIH
 70
     1
  9
$DIMTOH
 70
     1
  9
$DIMSE1
 70
     0
  9
$DIMSE2
 70
     0
  9
$DIMTAD
 70
     0
  9
$DIMZIN
 70
     0
  9
$DIMBLK
  1

  9
$DIMASO
 70
     1
  9
$DIMSHO
 70
     1
  9
$DIMPOST
  1

  9
$DIMAPOST
  1

  9
$DIMALT
 70
     0
  9
$DIMALTD
 70
     2
  9
$DIMALTF
 40
25.4
  9
$DIMLFAC
 40
1.0
  9
$DIMTOFL
 70
     0
  9
$DIMTVP
 40
0.0
  9
$DIMTIX
 70
     0
  9
$DIMSOXD
 70
     0
  9
$DIMSAH
 70
     0
  9
$DIMBLK1
  1

  9
$DIMBLK2
  1

  9
$DIMSTYLE
  2
Standard
  9
$DIMCLRD
 70
     0
  9
$DIMCLRE
 70
     0
  9
$DIMCLRT
 70
     0
  9
$DIMTFAC
 40
1.0
  9
$DIMGAP
 40
0.09
  9
$DIMJUST
 70
     0
  9
$DIMSD1
 70
     0
  9
$DIMSD2
 70
     0
  9
$DIMTOLJ
 70
     1
  9
$DIMTZIN
 70
     0
  9
$DIMALTZ
 70
     0
  9
$DIMALTTZ
 70
     0
  9
$DIMUPT
 70
     0
  9
$DIMDEC
 70
     4
  9
$DIMTDEC
 70
     4
  9
$DIMALTU
 70
     2
  9
$DIMALTTD
 70
     2
  9
$DIMTXSTY
  7
Standard
  9
$DIMAUNIT
 70
     0
  9
$DIMADEC
 70
     0
  9
$DIMALTRND
 40
0.0
  9
$DIMAZIN
 70
     0
  9
$DIMDSEP
 70
    46
  9
$DIMATFIT
 70
     3
  9
$DIMFRAC
 70
     0
  9
$DIMLDRBLK
  1

  9
$DIMLUNIT
 70
     2
  9
$DIMLWD
 70
    -2
  9
$DIMLWE
 70
    -2
  9
$DIMTMOVE
 70
     0
  9
$LUNITS
 70
     2
  9
$LUPREC
 70
     4
  9
$SKETCHINC
 40
0.1
  9
$FILLETRAD
 40
0.5
  9
$AUNITS
 70
     0
  9
$AUPREC
 70
     0
  9
$MENU
  1
.
  9
$ELEVATION
 40
0.0
  9
$PELEVATION
 40
0.0
  9
$THICKNESS
 40
0.0
  9
$LIMCHECK
 70
     0
  9
$CHAMFERA
 40
0.0
  9
$CHAMFERB
 40
0.0
  9
$CHAMFERC
 40
0.0
  9
$CHAMFERD
 40
0.0
  9
$SKPOLY
 70
     0
  9
$TDCREATE
 40
2460054.588243437
  9
$TDUCREATE
 40
2460054.504910104
  9
$TDUPDATE
 40
2460054.588243912
  9
$TDUUPDATE
 40
2460054.504910578
  9
$TDINDWG
 40
0.0000000116
  9
$TDUSRTIMER
 40
0.0000000116
  9
$USRTIMER
 70
     1
  9
$ANGBASE
 50
0.0
  9
$ANGDIR
 70
     0
  9
$PDMODE
 70
     0
  9
$PDSIZE
 40
0.0
  9
$PLINEWID
 40
0.0
  9
$SPLFRAME
 70
     0
  9
$SPLINETYPE
 70
     6
  9
$SPLINESEGS
 70
     8
  9
$HANDSEED
  5
1EA
  9
$SURFTAB1
 70
     6
  9
$SURFTAB2
 70
     6
  9
$SURFTYPE
 70
     6
  9
$SURFU
 70
     6
  9
$SURFV
 70
     6
  9
$UCSBASE
  2

  9
$UCSNAME
  2

  9
$UCSORG
 10
0.0
 20
0.0
 30
0.0
  9
$UCSXDIR
 10
1.0
 20
0.0
 30
0.0
  9
$UCSYDIR
 10
0.0
 20
1.0
 30
0.0
  9
$UCSORTHOREF
  2

  9
$UCSORTHOVIEW
 70
     0
  9
$UCSORGTOP
 10
0.0
 20
0.0
 30
0.0
  9
$UCSORGBOTTOM
 10
0.0
 20
0.0
 30
0.0
  9
$UCSORGLEFT
 10
0.0
 20
0.0
 30
0.0
  9
$UCSORGRIGHT
 10
0.0
 20
0.0
 30
0.0
  9
$UCSORGFRONT
 10
0.0
 20
0.0
 30
0.0
  9
$UCSORGBACK
 10
0.0
 20
0.0
 30
0.0
  9
$PUCSBASE
  2

  9
$PUCSNAME
  2

  9
$PUCSORG
 10
0.0
 20
0.0
 30
0.0
  9
$PUCSXDIR
 10
1.0
 20
0.0
 30
0.0
  9
$PUCSYDIR
 10
0.0
 20
1.0
 30
0.0
  9
$PUCSORTHOREF
  2

  9
$PUCSORTHOVIEW
 70
     0
  9
$PUCSORGTOP
 10
0.0
 20
0.0
 30
0.0
  9
$PUCSORGBOTTOM
 10
0.0
 20
0.0
 30
0.0
  9
$PUCSORGLEFT
 10
0.0
 20
0.0
 30
0.0
  9
$PUCSORGRIGHT
 10
0.0
 20
0.0
 30
0.0
  9
$PUCSORGFRONT
 10
0.0
 20
0.0
 30
0.0
  9
$PUCSORGBACK
 10
0.0
 20
0.0
 30
0.0
  9
$USERI1
 70
     0
  9
$USERI2
 70
     0
  9
$USERI3
 70
     0
  9
$USERI4
 70
     0
  9
$USERI5
 70
     0
  9
$USERR1
 40
0.0
  9
$USERR2
 40
0.0
  9
$USERR3
 40
0.0
  9
$USERR4
 40
0.0
  9
$USERR5
 40
0.0
  9
$WORLDVIEW
 70
     1
  9
$SHADEDGE
 70
     3
  9
$SHADEDIF
 70
    70
  9
$TILEMODE
 70
     1
  9
$MAXACTVP
 70
    64
  9
$PINSBASE
 10
0.0
 20
0.0
 30
0.0
  9
$PLIMCHECK
 70
     0
  9
$PEXTMIN
 10
-0.5
 20
-0.5
 30
-0.5
  9
$PEXTMAX
 10
5.0
 20
5.0
 30
5.0
  9
$PLIMMIN
 10
-0.5
 20
-0.5
  9
$PLIMMAX
 10
5.0
 20
5.0
  9
$UNITMODE
 70
     0
  9
$VISRETAIN
 70
     1
  9
$PLINEGEN
 70
     0
  9
$PSLTSCALE
 70
     1
  9
$TREEDEPTH
 70
  3020
  9
$CMLSTYLE
  2
Standard
  9
$CMLJUST
 70
     0
  9
$CMLSCALE
 40
1.0
  9
$PROXYGRAPHICS
 70
     1
  9
$MEASUREMENT
 70
     1
  9
$CELWEIGHT
370
    18
  9
$ENDCAPS
280
     0
  9
$JOINSTYLE
280
     0
  9
$LWDISPLAY
290
     1
  9
$INSUNITS
 70
     4
  9
$HYPERLINKBASE
  1

  9
$STYLESHEET
  1

  9
$XEDIT
290
     1
  9
$CEPSNTYPE
380
     0
  9
$PSTYLEMODE
290
     1
  9
$FINGERPRINTGUID
  2
{BC1F7B96-72B3-4928-93DE-CB8A7244C1D2}
  9
$VERSIONGUID
  2
{FAEB1C32-E019-11D5-929B-00C0DF256EC4}
  9
$EXTNAMES
290
     1
  9
$PSVPSCALE
 40
0.0
  9
$OLESTARTUP
290
     0
  9
$SORTENTS
280
   127
  9
$INDEXCTL
280
     0
  9
$HIDETEXT
280
     1
  9
$XCLIPFRAME
290
     0
  9
$HALOGAP
280
     0
  9
$OBSCOLOR
 70
   257
  9
$OBSLTYPE
280
     0
  9
$INTERSECTIONDISPLAY
280
     0
  9
$INTERSECTIONCOLOR
 70
   257
  9
$DIMASSOC
280
     2
  9
$PROJECTNAME
  1

  0
ENDSEC
  0
SECTION
  2
CLASSES
  0
CLASS
  1
ACDBDICTIONARYWDFLT
  2
AcDbDictionaryWithDefault
  3
ObjectDBX Classes
 90
        0
 91
        3
280
     0
281
     0
  0
CLASS
  1
VISUALSTYLE
  2
AcDbVisualStyle
  3
ObjectDBX Classes
 90
     4095
 91
        3
280
     0
281
     0
  0
CLASS
  1
MATERIAL
  2
AcDbMaterial
  3
ObjectDBX Classes
 90
     1153
 91
        3
280
     0
281
     0
  0
CLASS
  1
SCALE
  2
AcDbScale
  3
ObjectDBX Classes
 90
     1153
 91
        3
280
     0
281
     0
  0
CLASS
  1
TABLESTYLE
  2
AcDbTableStyle
  3
ObjectDBX Classes
 90
     4095
 91
        3
280
     0
281
     0
  0
CLASS
  1
MLEADERSTYLE
  2
AcDbMLeaderStyle
  3
ACDB_MLEADERSTYLE_CLASS
 90
     4095
 91
        3
280
     0
281
     0
  0
CLASS
  1
SUN
  2
AcDbSun
  3
SCENEOE
 90
     1153
 91
        3
280
     0
281
     0
  0
CLASS
  1
DICTIONARYVAR
  2
AcDbDictionaryVar
  3
ObjectDBX Classes
 90
        0
 91
        3
280
     0
281
     0
  0
CLASS
  1
CELLSTYLEMAP
  2
AcDbCellStyleMap
  3
ObjectDBX Classes
 90
     1152
 91
        3
280
     0
281
     0
  0
ENDSEC
  0
SECTION
  2
TABLES
  0
TABLE
  2
VPORT
  5
8
102
{ACAD_XDICTIONARY
360
1A3
102
}
330
0
100
AcDbSymbolTable
 70
    16
  0
VPORT
  5
29
330
8
100
AcDbSymbolTableRecord
100
AcDbViewportTableRecord
  2
*Active
 70
     0
 10
0.0
 20
0.0
 11
1.0
 21
1.0
 12
592.855903
 22
398.878853
 13
0.0
 23
0.0
 14
0.5
 24
0.5
 15
0.5
 25
0.5
 16
0.0
 26
0.0
 36
1.0
 17
0.0
 27
0.0
 37
0.0
 40
254.0
 41
0.069908
 42
50.0
 43
1171.691713
 44
-1171.691713
 50
0.0
 51
0.0
 71
     0
 72
   100
 73
     1
 74
     3
 75
     0
 76
     0
 77
     0
 78
     0
281
     0
 65
     1
110
0.0
120
0.0
130
0.0
111
1.0
121
0.0
131
0.0
112
0.0
122
1.0
132
0.0
 79
     0
146
0.0
  0
VPORT
  5
194
330
8
100
AcDbSymbolTableRecord
100
AcDbViewportTableRecord
  2
L1
 70
     0
 10
0.0
 20
0.0
 11
1.0
 21
1.0
 12
592.855903
 22
398.878853
 13
0.0
 23
0.0
 14
0.5
 24
0.5
 15
0.5
 25
0.5
 16
0.0
 26
0.0
 36
1.0
 17
0.0
 27
0.0
 37
0.0
 40
254.0
 41
0.069908
 42
50.0
 43
1171.691713
 44
-1171.691713
 50
0.0
 51
0.0
 71
     0
 72
   100
 73
     1
 74
     3
 75
     0
 76
     0
 77
     0
 78
     0
281
     0
 65
     1
110
0.0
120
0.0
130
0.0
111
1.0
121
0.0
131
0.0
112
0.0
122
1.0
132
0.0
 79
     0
146
0.0
  0
VPORT
  5
195
330
8
100
AcDbSymbolTableRecord
100
AcDbViewportTableRecord
  2
L2
 70
     0
 10
0.0
 20
0.0
 11
0.5
 21
1.0
 12
0.0
 22
0.0
 13
0.0
 23
0.0
 14
0.5
 24
0.5
 15
0.5
 25
0.5
 16
0.0
 26
-1.0
 36
0.0
 17
0.0
 27
0.0
 37
0.0
 40
1554.140024
 41
0.011425
 42
50.0
 43
799.170128
 44
-799.170128
 50
0.0
 51
0.0
 71
     0
 72
   100
 73
     1
 74
     3
 75
     0
 76
     0
 77
     0
 78
     0
281
     0
 65
     1
110
0.0
120
0.0
130
0.0
111
1.0
121
0.0
131
0.0
112
0.0
122
1.0
132
0.0
 79
     0
146
0.0
  0
VPORT
  5
196
330
8
100
AcDbSymbolTableRecord
100
AcDbViewportTableRecord
  2
L2
 70
     0
 10
0.5
 20
0.0
 11
1.0
 21
1.0
 12
0.0
 22
0.0
 13
0.0
 23
0.0
 14
0.5
 24
0.5
 15
0.5
 25
0.5
 16
1.0
 26
0.0
 36
0.0
 17
0.0
 27
0.0
 37
0.0
 40
1554.140024
 41
0.011425
 42
50.0
 43
787.379708
 44
-787.379708
 50
0.0
 51
0.0
 71
     0
 72
   100
 73
     1
 74
     3
 75
     0
 76
     0
 77
     0
 78
     0
281
     0
 65
     1
110
0.0
120
0.0
130
0.0
111
1.0
121
0.0
131
0.0
112
0.0
122
1.0
132
0.0
 79
     0
146
0.0
  0
VPORT
  5
197
330
8
100
AcDbSymbolTableRecord
100
AcDbViewportTableRecord
  2
L3
 70
     0
 10
0.0
 20
0.5
 11
1.0
 21
1.0
 12
592.855903
 22
398.878853
 13
0.0
 23
0.0
 14
0.5
 24
0.5
 15
0.5
 25
0.5
 16
0.0
 26
0.0
 36
1.0
 17
0.0
 27
0.0
 37
0.0
 40
254.0
 41
0.069908
 42
50.0
 43
1171.691713
 44
-1171.691713
 50
0.0
 51
0.0
 71
     0
 72
   100
 73
     1
 74
     3
 75
     0
 76
     0
 77
     0
 78
     0
281
     0
 65
     1
110
0.0
120
0.0
130
0.0
111
1.0
121
0.0
131
0.0
112
0.0
122
1.0
132
0.0
 79
     0
146
0.0
  0
VPORT
  5
198
330
8
100
AcDbSymbolTableRecord
100
AcDbViewportTableRecord
  2
L3
 70
     0
 10
0.0
 20
0.0
 11
1.0
 21
0.5
 12
0.0
 22
0.0
 13
0.0
 23
0.0
 14
0.5
 24
0.5
 15
0.5
 25
0.5
 16
0.0
 26
-1.0
 36
0.0
 17
0.0
 27
0.0
 37
0.0
 40
1554.140024
 41
0.011425
 42
50.0
 43
799.170128
 44
-799.170128
 50
0.0
 51
0.0
 71
     0
 72
   100
 73
     1
 74
     3
 75
     0
 76
     0
 77
     0
 78
     0
281
     0
 65
     1
110
0.0
120
0.0
130
0.0
111
1.0
121
0.0
131
0.0
112
0.0
122
1.0
132
0.0
 79
     0
146
0.0
  0
VPORT
  5
199
330
8
100
AcDbSymbolTableRecord
100
AcDbViewportTableRecord
  2
L4
 70
     0
 10
0.0
 20
0.5
 11
0.5
 21
1.0
 12
592.855903
 22
398.878853
 13
0.0
 23
0.0
 14
0.5
 24
0.5
 15
0.5
 25
0.5
 16
0.0
 26
0.0
 36
1.0
 17
0.0
 27
0.0
 37
0.0
 40
254.0
 41
0.069908
 42
50.0
 43
1171.691713
 44
-1171.691713
 50
0.0
 51
0.0
 71
     0
 72
   100
 73
     1
 74
     3
 75
     0
 76
     0
 77
     0
 78
     0
281
     0
 65
     1
110
0.0
120
0.0
130
0.0
111
1.0
121
0.0
131
0.0
112
0.0
122
1.0
132
0.0
 79
     0
146
0.0
  0
VPORT
  5
19A
330
8
100
AcDbSymbolTableRecord
100
AcDbViewportTableRecord
  2
L4
 70
     0
 10
0.0
 20
0.0
 11
0.5
 21
0.5
 12
0.0
 22
0.0
 13
0.0
 23
0.0
 14
0.5
 24
0.5
 15
0.5
 25
0.5
 16
0.0
 26
-1.0
 36
0.0
 17
0.0
 27
0.0
 37
0.0
 40
1554.140024
 41
0.011425
 42
50.0
 43
799.170128
 44
-799.170128
 50
0.0
 51
0.0
 71
     0
 72
   100
 73
     1
 74
     3
 75
     0
 76
     0
 77
     0
 78
     0
281
     0
 65
     1
110
0.0
120
0.0
130
0.0
111
1.0
121
0.0
131
0.0
112
0.0
122
1.0
132
0.0
 79
     0
146
0.0
  0
VPORT
  5
19B
330
8
100
AcDbSymbolTableRecord
100
AcDbViewportTableRecord
  2
L4
 70
     0
 10
0.5
 20
0.0
 11
1.0
 21
0.5
 12
0.0
 22
0.0
 13
0.0
 23
0.0
 14
0.5
 24
0.5
 15
0.5
 25
0.5
 16
1.0
 26
0.0
 36
0.0
 17
0.0
 27
0.0
 37
0.0
 40
1554.140024
 41
0.011425
 42
50.0
 43
787.379708
 44
-787.379708
 50
0.0
 51
0.0
 71
     0
 72
   100
 73
     1
 74
     3
 75
     0
 76
     0
 77
     0
 78
     0
281
     0
 65
     1
110
0.0
120
0.0
130
0.0
111
1.0
121
0.0
131
0.0
112
0.0
122
1.0
132
0.0
 79
     0
146
0.0
  0
VPORT
  5
19C
330
8
100
AcDbSymbolTableRecord
100
AcDbViewportTableRecord
  2
L4
 70
     0
 10
0.5
 20
0.5
 11
1.0
 21
1.0
 12
0.0
 22
0.0
 13
0.0
 23
0.0
 14
0.5
 24
0.5
 15
0.5
 25
0.5
 16
0.5773502691896258
 26
-0.5773502691896258
 36
0.5773502691896258
 17
0.0
 27
0.0
 37
0.0
 40
1525.037316
 41
0.011643
 42
50.0
 43
794.116007
 44
-794.116007
 50
0.0
 51
0.0
 71
     0
 72
   100
 73
     1
 74
     3
 75
     0
 76
     0
 77
     0
 78
     0
281
     0
 65
     1
110
0.0
120
0.0
130
0.0
111
1.0
121
0.0
131
0.0
112
0.0
122
1.0
132
0.0
 79
     0
146
0.0
  0
VPORT
  5
19D
330
8
100
AcDbSymbolTableRecord
100
AcDbViewportTableRecord
  2
L6
 70
     0
 10
0.0
 20
0.5
 11
0.333333
 21
1.0
 12
0.0
 22
0.0
 13
0.0
 23
0.0
 14
0.5
 24
0.5
 15
0.5
 25
0.5
 16
0.7188730927569433
 26
-0.5850486126764433
 36
0.3754192287502549
 17
0.0
 27
0.0
 37
0.0
 40
1609.344902
 41
0.011034
 42
50.0
 43
833.240238
 44
-833.240238
 50
0.0
 51
0.0
 71
     0
 72
   100
 73
     1
 74
     3
 75
     0
 76
     0
 77
     0
 78
     0
281
     0
 65
     1
110
0.0
120
0.0
130
0.0
111
1.0
121
0.0
131
0.0
112
0.0
122
1.0
132
0.0
 79
     0
146
0.0
  0
VPORT
  5
19E
330
8
100
AcDbSymbolTableRecord
100
AcDbViewportTableRecord
  2
L6
 70
     0
 10
0.0
 20
0.0
 11
0.333333
 21
0.5
 12
0.0
 22
0.0
 13
0.0
 23
0.0
 14
0.5
 24
0.5
 15
0.5
 25
0.5
 16
-1.0
 26
0.0
 36
0.0
 17
0.0
 27
0.0
 37
0.0
 40
1554.140024
 41
0.011425
 42
50.0
 43
787.379708
 44
-787.379708
 50
0.0
 51
0.0
 71
     0
 72
   100
 73
     1
 74
     3
 75
     0
 76
     0
 77
     0
 78
     0
281
     0
 65
     1
110
0.0
120
0.0
130
0.0
111
1.0
121
0.0
131
0.0
112
0.0
122
1.0
132
0.0
 79
     0
146
0.0
  0
VPORT
  5
19F
330
8
100
AcDbSymbolTableRecord
100
AcDbViewportTableRecord
  2
L6
 70
     0
 10
0.333333
 20
0.5
 11
0.666667
 21
1.0
 12
592.855903
 22
398.878853
 13
0.0
 23
0.0
 14
0.5
 24
0.5
 15
0.5
 25
0.5
 16
0.0
 26
0.0
 36
1.0
 17
0.0
 27
0.0
 37
0.0
 40
254.0
 41
0.069908
 42
50.0
 43
1171.691713
 44
-1171.691713
 50
0.0
 51
0.0
 71
     0
 72
   100
 73
     1
 74
     3
 75
     0
 76
     0
 77
     0
 78
     0
281
     0
 65
     1
110
0.0
120
0.0
130
0.0
111
1.0
121
0.0
131
0.0
112
0.0
122
1.0
132
0.0
 79
     0
146
0.0
  0
VPORT
  5
1A0
330
8
100
AcDbSymbolTableRecord
100
AcDbViewportTableRecord
  2
L6
 70
     0
 10
0.333333
 20
0.0
 11
0.666667
 21
0.5
 12
0.0
 22
0.0
 13
0.0
 23
0.0
 14
0.5
 24
0.5
 15
0.5
 25
0.5
 16
0.0
 26
-1.0
 36
0.0
 17
0.0
 27
0.0
 37
0.0
 40
1554.140024
 41
0.011425
 42
50.0
 43
799.170128
 44
-799.170128
 50
0.0
 51
0.0
 71
     0
 72
   100
 73
     1
 74
     3
 75
     0
 76
     0
 77
     0
 78
     0
281
     0
 65
     1
110
0.0
120
0.0
130
0.0
111
1.0
121
0.0
131
0.0
112
0.0
122
1.0
132
0.0
 79
     0
146
0.0
  0
VPORT
  5
1A1
330
8
100
AcDbSymbolTableRecord
100
AcDbViewportTableRecord
  2
L6
 70
     0
 10
0.666667
 20
0.5
 11
1.0
 21
1.0
 12
0.0
 22
0.0
 13
0.0
 23
0.0
 14
0.5
 24
0.5
 15
0.5
 25
0.5
 16
0.5773502691896258
 26
-0.5773502691896258
 36
0.5773502691896258
 17
0.0
 27
0.0
 37
0.0
 40
1525.037316
 41
0.011643
 42
50.0
 43
794.116007
 44
-794.116007
 50
0.0
 51
0.0
 71
     0
 72
   100
 73
     1
 74
     3
 75
     0
 76
     0
 77
     0
 78
     0
281
     0
 65
     1
110
0.0
120
0.0
130
0.0
111
1.0
121
0.0
131
0.0
112
0.0
122
1.0
132
0.0
 79
     0
146
0.0
  0
VPORT
  5
1A2
330
8
100
AcDbSymbolTableRecord
100
AcDbViewportTableRecord
  2
L6
 70
     0
 10
0.666667
 20
0.0
 11
1.0
 21
0.5
 12
0.0
 22
0.0
 13
0.0
 23
0.0
 14
0.5
 24
0.5
 15
0.5
 25
0.5
 16
1.0
 26
0.0
 36
0.0
 17
0.0
 27
0.0
 37
0.0
 40
1554.140024
 41
0.011425
 42
50.0
 43
787.379708
 44
-787.379708
 50
0.0
 51
0.0
 71
     0
 72
   100
 73
     1
 74
     3
 75
     0
 76
     0
 77
     0
 78
     0
281
     0
 65
     1
110
0.0
120
0.0
130
0.0
111
1.0
121
0.0
131
0.0
112
0.0
122
1.0
132
0.0
 79
     0
146
0.0
  0
ENDTAB
  0
TABLE
  2
LTYPE
  5
5
330
0
100
AcDbSymbolTable
 70
     6
  0
LTYPE
  5
14
330
5
100
AcDbSymbolTableRecord
100
AcDbLinetypeTableRecord
  2
ByBlock
 70
     0
  3

 72
    65
 73
     0
 40
0.0
  0
LTYPE
  5
15
330
5
100
AcDbSymbolTableRecord
100
AcDbLinetypeTableRecord
  2
ByLayer
 70
     0
  3

 72
    65
 73
     0
 40
0.0
  0
LTYPE
  5
16
330
5
100
AcDbSymbolTableRecord
100
AcDbLinetypeTableRecord
  2
Continuous
 70
     0
  3
Solid line
 72
    65
 73
     0
 40
0.0
  0
LTYPE
  5
6E
330
5
100
AcDbSymbolTableRecord
100
AcDbLinetypeTableRecord
  2
CENTER
 70
     0
  3
____ _ ____ _ ____ _ ____
 72
    65
 73
     4
 40
47.4
 49
22.0
 74
     4
 75
     0
340
0
 46
0.0
 50
0.0
 44
0.0
 45
0.0
 49
-8.5
 74
     4
 75
     0
340
0
 46
0.0
 50
0.0
 44
0.0
 45
0.0
 49
8.5
 74
     4
 75
     0
340
0
 46
0.0
 50
0.0
 44
0.0
 45
0.0
 49
-8.5
 74
     4
 75
     0
340
0
 46
0.0
 50
0.0
 44
0.0
 45
0.0
  0
LTYPE
  5
6F
330
5
100
AcDbSymbolTableRecord
100
AcDbLinetypeTableRecord
  2
DASHDOT
 70
     0
  3
_._._._._._._._._._._._._._._._.
 72
    65
 73
     4
 40
70.0
 49
31.0
 74
     4
 75
     0
340
0
 46
0.0
 50
0.0
 44
0.0
 45
0.0
 49
-13.0
 74
     4
 75
     0
340
0
 46
0.0
 50
0.0
 44
0.0
 45
0.0
 49
13.0
 74
     4
 75
     0
340
0
 46
0.0
 50
0.0
 44
0.0
 45
0.0
 49
-13.0
 74
     4
 75
     0
340
0
 46
0.0
 50
0.0
 44
0.0
 45
0.0
  0
LTYPE
  5
70
330
5
100
AcDbSymbolTableRecord
100
AcDbLinetypeTableRecord
  2
DASHED
 70
     0
  3
__ __ __ __ __ __ __ __ __
 72
    65
 73
     2
 40
25.72
 49
12.86
 74
     4
 75
     0
340
0
 46
0.0
 50
0.0
 44
0.0
 45
0.0
 49
-12.86
 74
     4
 75
     0
340
0
 46
0.0
 50
0.0
 44
0.0
 45
0.0
  0
LTYPE
  5
71
330
5
100
AcDbSymbolTableRecord
100
AcDbLinetypeTableRecord
  2
DOT
 70
     0
  3
.........................
 72
    65
 73
     2
 40
10.0
 49
0.0
 74
     4
 75
     0
340
0
 46
0.0
 50
0.0
 44
0.0
 45
0.0
 49
-10.0
 74
     4
 75
     0
340
0
 46
0.0
 50
0.0
 44
0.0
 45
0.0
  0
LTYPE
  5
72
330
5
100
AcDbSymbolTableRecord
100
AcDbLinetypeTableRecord
  2
PHANTOM
 70
     0
  3
____ _ _ ____ _ _ _____ _ _ ____
 72
    65
 73
     6
 40
50.5
 49
18.0
 74
     4
 75
     0
340
0
 46
0.0
 50
0.0
 44
0.0
 45
0.0
 49
-6.5
 74
     4
 75
     0
340
0
 46
0.0
 50
0.0
 44
0.0
 45
0.0
 49
6.5
 74
     4
 75
     0
340
0
 46
0.0
 50
0.0
 44
0.0
 45
0.0
 49
-6.5
 74
     4
 75
     0
340
0
 46
0.0
 50
0.0
 44
0.0
 45
0.0
 49
6.5
 74
     4
 75
     0
340
0
 46
0.0
 50
0.0
 44
0.0
 45
0.0
 49
-6.5
 74
     4
 75
     0
340
0
 46
0.0
 50
0.0
 44
0.0
 45
0.0
  0
ENDTAB
  0
TABLE
  2
LAYER
  5
2
330
0
100
AcDbSymbolTable
 70
     3
  0
LAYER
  5
10
330
2
100
AcDbSymbolTableRecord
100
AcDbLayerTableRecord
  2
0
 70
     0
 62
     7
  6
Continuous
370
    -3
390
F
  0
LAYER
  5
74
330
2
100
AcDbSymbolTableRecord
100
AcDbLayerTableRecord
  2
2
 70
     0
 62
     7
420
 16777215
  6
Continuous
370
    -3
390
F
  0
LAYER
  5
79
330
2
100
AcDbSymbolTableRecord
100
AcDbLayerTableRecord
  2
1
 70
     0
 62
     7
420
 16777215
  6
Continuous
370
    -3
390
F
  0
ENDTAB
  0
TABLE
  2
STYLE
  5
3
330
0
100
AcDbSymbolTable
 70
     1
  0
STYLE
  5
11
330
3
100
AcDbSymbolTableRecord
100
AcDbTextStyleTableRecord
  2
Standard
 70
     0
 40
0.0
 41
1.0
 50
0.0
 71
     0
 42
0.2
  3
txt
  4

  0
ENDTAB
  0
TABLE
  2
VIEW
  5
6
330
0
100
AcDbSymbolTable
 70
     0
  0
ENDTAB
  0
TABLE
  2
UCS
  5
7
330
0
100
AcDbSymbolTable
 70
     0
  0
ENDTAB
  0
TABLE
  2
APPID
  5
9
330
0
100
AcDbSymbolTable
 70
     2
  0
APPID
  5
12
330
9
100
AcDbSymbolTableRecord
100
AcDbRegAppTableRecord
  2
ACAD
 70
     0
  0
APPID
  5
1E2
330
9
100
AcDbSymbolTableRecord
100
AcDbRegAppTableRecord
  2
ACAD_MLEADERVER
 70
     0
  0
ENDTAB
  0
TABLE
  2
DIMSTYLE
  5
A
330
0
100
AcDbSymbolTable
 70
     1
100
AcDbDimStyleTable
  0
DIMSTYLE
105
27
330
A
100
AcDbSymbolTableRecord
100
AcDbDimStyleTableRecord
  2
Standard
 70
     0
178
     0
340
11
  0
ENDTAB
  0
TABLE
  2
BLOCK_RECORD
  5
1
330
0
100
AcDbSymbolTable
 70
     1
  0
BLOCK_RECORD
  5
1F
330
1
100
AcDbSymbolTableRecord
100
AcDbBlockTableRecord
  2
*Model_Space
340
22
  0
BLOCK_RECORD
  5
1B
330
1
100
AcDbSymbolTableRecord
100
AcDbBlockTableRecord
  2
*Paper_Space
340
1E
  0
BLOCK_RECORD
  5
23
330
1
100
AcDbSymbolTableRecord
100
AcDbBlockTableRecord
  2
*Paper_Space0
340
26
  0
ENDTAB
  0
ENDSEC
  0
SECTION
  2
BLOCKS
  0
BLOCK
  5
20
330
1F
100
AcDbEntity
  8
0
100
AcDbBlockBegin
  2
*Model_Space
 70
     0
 10
0.0
 20
0.0
 30
0.0
  3
*Model_Space
  1

  0
ENDBLK
  5
21
330
1F
100
AcDbEntity
  8
0
100
AcDbBlockEnd
  0
BLOCK
  5
1C
330
1B
100
AcDbEntity
 67
     1
  8
0
100
AcDbBlockBegin
  2
*Paper_Space
 70
     0
 10
0.0
 20
0.0
 30
0.0
  3
*Paper_Space
  1

  0
ENDBLK
  5
1D
330
1B
100
AcDbEntity
 67
     1
  8
0
100
AcDbBlockEnd
  0
BLOCK
  5
24
330
23
100
AcDbEntity
  8
0
100
AcDbBlockBegin
  2
*Paper_Space0
 70
     0
 10
0.0
 20
0.0
 30
0.0
  3
*Paper_Space0
  1

  0
ENDBLK
  5
25
330
23
100
AcDbEntity
  8
0
100
AcDbBlockEnd
  0
ENDSEC
  0
SECTION
  2
ENTITIES
  0
LINE
  5
73
330
1F
100
AcDbEntity
  8
2
  6
Continuous
 62
    30
370
    18
100
AcDbLine
 10
362.663895
 20
590.916741
 30
0.0
 11
362.663895
 21
625.916741
 31
0.0
  0
LINE
  5
75
330
1F
100
AcDbEntity
  8
2
  6
Continuous
 62
    30
370
    18
100
AcDbLine
 10
346.663895
 20
625.916741
 30
0.0
 11
346.663895
 21
590.916741
 31
0.0
  0
LINE
  5
76
330
1F
100
AcDbEntity
  8
2
  6
Continuous
 62
    30
370
    18
100
AcDbLine
 10
413.663895
 20
590.916741
 30
0.0
 11
413.663895
 21
625.916741
 31
0.0
  0
LINE
  5
77
330
1F
100
AcDbEntity
  8
2
  6
Continuous
 62
    30
370
    18
100
AcDbLine
 10
397.663895
 20
625.916741
 30
0.0
 11
397.663895
 21
590.916741
 31
0.0
  0
LINE
  5
78
330
1F
100
AcDbEntity
  8
1
  6
Continuous
 62
    30
370
    18
100
AcDbLine
 10
388.663895
 20
581.091012
 30
0.0
 11
388.163895
 21
581.091012
 31
0.0
  0
LINE
  5
7A
330
1F
100
AcDbEntity
  8
1
  6
Continuous
 62
    30
370
    18
100
AcDbLine
 10
371.663895
 20
576.441544
 30
0.0
 11
372.163895
 21
576.441544
 31
0.0
  0
LINE
  5
7B
330
1F
100
AcDbEntity
  8
1
  6
Continuous
 62
    30
370
    18
100
AcDbLine
 10
388.663895
 20
580.245465
 30
0.0
 11
388.163895
 21
580.245465
 31
0.0
  0
LINE
  5
7C
330
1F
100
AcDbEntity
  8
1
  6
Continuous
 62
    30
370
    18
100
AcDbLine
 10
405.394102
 20
545.416741
 30
0.0
 11
406.017871
 21
549.028553
 31
0.0
  0
LINE
  5
7D
330
1F
100
AcDbEntity
  8
1
  6
Continuous
 62
    30
370
    18
100
AcDbLine
 10
354.309919
 20
549.028553
 30
0.0
 11
354.933688
 21
545.416741
 31
0.0
  0
LINE
  5
7E
330
1F
100
AcDbEntity
  8
1
  6
Continuous
 62
    30
370
    18
100
AcDbLine
 10
388.663895
 20
582.496161
 30
0.0
 11
388.163895
 21
582.496161
 31
0.0
  0
LINE
  5
7F
330
1F
100
AcDbEntity
  8
1
  6
Continuous
 62
    30
370
    18
100
AcDbLine
 10
372.163895
 20
582.496161
 30
0.0
 11
371.663895
 21
582.496161
 31
0.0
  0
LINE
  5
80
330
1F
100
AcDbEntity
  8
1
  6
Continuous
 62
    30
370
    18
100
AcDbLine
 10
372.163895
 20
581.985899
 30
0.0
 11
371.663895
 21
581.985899
 31
0.0
  0
LINE
  5
81
330
1F
100
AcDbEntity
  8
1
  6
Continuous
 62
    30
370
    18
100
AcDbLine
 10
371.663895
 20
580.24935
 30
0.0
 11
372.163895
 21
580.24935
 31
0.0
  0
LINE
  5
82
330
1F
100
AcDbEntity
  8
1
  6
Continuous
 62
    30
370
    18
100
AcDbLine
 10
372.163895
 20
581.37435
 30
0.0
 11
371.663895
 21
581.37435
 31
0.0
  0
LINE
  5
83
330
1F
100
AcDbEntity
  8
1
  6
Continuous
 62
   252
370
    18
100
AcDbLine
 10
405.394102
 20
524.083407
 30
0.0
 11
405.394102
 21
545.416741
 31
0.0
  0
LINE
  5
84
330
1F
100
AcDbEntity
  8
1
  6
Continuous
 62
   252
370
    18
100
AcDbLine
 10
354.933688
 20
545.416741
 30
0.0
 11
354.933688
 21
524.083407
 31
0.0
  0
LINE
  5
85
330
1F
100
AcDbEntity
  8
1
  6
Continuous
 62
   252
370
    18
100
AcDbLine
 10
390.163895
 20
481.416741
 30
0.0
 11
390.163895
 21
512.416741
 31
0.0
  0
LINE
  5
86
330
1F
100
AcDbEntity
  8
1
  6
Continuous
 62
   252
370
    18
100
AcDbLine
 10
370.163895
 20
512.416741
 30
0.0
 11
370.163895
 21
481.416741
 31
0.0
  0
LINE
  5
87
330
1F
100
AcDbEntity
  8
1
  6
Continuous
 62
   252
370
    18
100
AcDbLine
 10
389.163895
 20
480.416741
 30
0.0
 11
390.163895
 21
481.416741
 31
0.0
  0
LINE
  5
88
330
1F
100
AcDbEntity
  8
1
  6
Continuous
 62
   252
370
    18
100
AcDbLine
 10
370.163895
 20
481.416741
 30
0.0
 11
371.163895
 21
480.416741
 31
0.0
  0
LINE
  5
89
330
1F
100
AcDbEntity
  8
1
  6
Continuous
 62
   252
370
    18
100
AcDbLine
 10
352.663895
 20
524.083407
 30
0.0
 11
352.663895
 21
514.416741
 31
0.0
  0
LINE
  5
8A
330
1F
100
AcDbEntity
  8
1
  6
Continuous
 62
   252
370
    18
100
AcDbLine
 10
407.663895
 20
514.416741
 30
0.0
 11
407.663895
 21
524.083407
 31
0.0
  0
LINE
  5
8B
330
1F
100
AcDbEntity
  8
2
  6
Continuous
 62
    30
370
    13
100
AcDbLine
 10
413.663895
 20
590.916741
 30
0.0
 11
397.663895
 21
590.916741
 31
0.0
  0
LINE
  5
8C
330
1F
100
AcDbEntity
  8
2
  6
Continuous
 62
    30
370
    13
100
AcDbLine
 10
346.663895
 20
590.916741
 30
0.0
 11
362.663895
 21
590.916741
 31
0.0
  0
LINE
  5
8D
330
1F
100
AcDbEntity
  8
2
  6
Continuous
 62
    30
370
    13
100
AcDbLine
 10
413.663895
 20
625.916741
 30
0.0
 11
397.663895
 21
625.916741
 31
0.0
  0
LINE
  5
8E
330
1F
100
AcDbEntity
  8
2
  6
Continuous
 62
    30
370
    13
100
AcDbLine
 10
346.663895
 20
625.916741
 30
0.0
 11
362.663895
 21
625.916741
 31
0.0
  0
LINE
  5
8F
330
1F
100
AcDbEntity
  8
1
  6
Continuous
 62
    30
370
    18
100
AcDbLine
 10
371.663895
 20
576.15181
 30
0.0
 11
372.163895
 21
576.15181
 31
0.0
  0
LINE
  5
90
330
1F
100
AcDbEntity
  8
1
  6
Continuous
 62
    30
370
    18
100
AcDbLine
 10
371.663895
 20
576.328494
 30
0.0
 11
372.163895
 21
576.328494
 31
0.0
  0
LINE
  5
91
330
1F
100
AcDbEntity
  8
1
  6
Continuous
 62
    30
370
    18
100
AcDbLine
 10
388.663895
 20
582.496161
 30
0.0
 11
388.663895
 21
581.386318
 31
0.0
  0
LINE
  5
92
330
1F
100
AcDbEntity
  8
1
  6
Continuous
 62
    30
370
    18
100
AcDbLine
 10
388.663895
 20
581.381621
 30
0.0
 11
388.163895
 21
581.381621
 31
0.0
  0
LINE
  5
93
330
1F
100
AcDbEntity
  8
1
  6
Continuous
 62
    30
370
    18
100
AcDbLine
 10
388.663895
 20
581.381391
 30
0.0
 11
388.663895
 21
581.380836
 31
0.0
  0
LINE
  5
94
330
1F
100
AcDbEntity
  8
1
  6
Continuous
 62
    30
370
    18
100
AcDbLine
 10
388.663895
 20
581.381391
 30
0.0
 11
388.163895
 21
581.381391
 31
0.0
  0
LINE
  5
95
330
1F
100
AcDbEntity
  8
1
  6
Continuous
 62
    30
370
    18
100
AcDbLine
 10
388.663895
 20
581.380797
 30
0.0
 11
388.163895
 21
581.380797
 31
0.0
  0
LINE
  5
96
330
1F
100
AcDbEntity
  8
1
  6
Continuous
 62
    30
370
    18
100
AcDbLine
 10
388.663895
 20
581.380554
 30
0.0
 11
388.663895
 21
581.379997
 31
0.0
  0
LINE
  5
97
330
1F
100
AcDbEntity
  8
1
  6
Continuous
 62
    30
370
    18
100
AcDbLine
 10
388.663895
 20
581.380554
 30
0.0
 11
388.163895
 21
581.380554
 31
0.0
  0
LINE
  5
98
330
1F
100
AcDbEntity
  8
1
  6
Continuous
 62
    30
370
    18
100
AcDbLine
 10
388.663895
 20
581.379957
 30
0.0
 11
388.163895
 21
581.379957
 31
0.0
  0
LINE
  5
99
330
1F
100
AcDbEntity
  8
1
  6
Continuous
 62
    30
370
    18
100
AcDbLine
 10
388.663895
 20
581.379713
 30
0.0
 11
388.163895
 21
581.379713
 31
0.0
  0
LINE
  5
9A
330
1F
100
AcDbEntity
  8
1
  6
Continuous
 62
    30
370
    18
100
AcDbLine
 10
371.663895
 20
576.44795
 30
0.0
 11
372.163895
 21
576.44795
 31
0.0
  0
LINE
  5
9B
330
1F
100
AcDbEntity
  8
1
  6
Continuous
 62
    30
370
    18
100
AcDbLine
 10
371.663895
 20
582.496161
 30
0.0
 11
371.663895
 21
581.985937
 31
0.0
  0
LINE
  5
9C
330
1F
100
AcDbEntity
  8
1
  6
Continuous
 62
    30
370
    13
100
AcDbLine
 10
388.663895
 20
580.151256
 30
0.0
 11
388.163895
 21
580.151256
 31
0.0
  0
LINE
  5
9D
330
1F
100
AcDbEntity
  8
1
  6
Continuous
 62
    30
370
    18
100
AcDbLine
 10
371.663895
 20
576.701818
 30
0.0
 11
372.163895
 21
576.701818
 31
0.0
  0
LINE
  5
9E
330
1F
100
AcDbEntity
  8
1
  6
Continuous
 62
    30
370
    18
100
AcDbLine
 10
371.663895
 20
579.796336
 30
0.0
 11
372.163895
 21
579.796336
 31
0.0
  0
LINE
  5
9F
330
1F
100
AcDbEntity
  8
1
  6
Continuous
 62
    30
370
    18
100
AcDbLine
 10
371.663895
 20
579.633674
 30
0.0
 11
372.163895
 21
579.633674
 31
0.0
  0
LINE
  5
A0
330
1F
100
AcDbEntity
  8
1
  6
Continuous
 62
    30
370
    18
100
AcDbLine
 10
388.663895
 20
576.15181
 30
0.0
 11
388.163895
 21
576.15181
 31
0.0
  0
LINE
  5
A1
330
1F
100
AcDbEntity
  8
1
  6
Continuous
 62
    30
370
    18
100
AcDbLine
 10
388.663895
 20
579.632068
 30
0.0
 11
388.163895
 21
579.632068
 31
0.0
  0
LINE
  5
A2
330
1F
100
AcDbEntity
  8
1
  6
Continuous
 62
    30
370
    18
100
AcDbLine
 10
388.663895
 20
579.792925
 30
0.0
 11
388.163895
 21
579.792925
 31
0.0
  0
LINE
  5
A3
330
1F
100
AcDbEntity
  8
1
  6
Continuous
 62
    30
370
    18
100
AcDbLine
 10
371.663895
 20
581.985899
 30
0.0
 11
371.663895
 21
581.423399
 31
0.0
  0
LINE
  5
A4
330
1F
100
AcDbEntity
  8
1
  6
Continuous
 62
    30
370
    18
100
AcDbLine
 10
371.663895
 20
581.423399
 30
0.0
 11
371.663895
 21
581.379927
 31
0.0
  0
LINE
  5
A5
330
1F
100
AcDbEntity
  8
1
  6
Continuous
 62
    30
370
    18
100
AcDbLine
 10
371.663895
 20
581.37435
 30
0.0
 11
371.663895
 21
580.81185
 31
0.0
  0
LINE
  5
A6
330
1F
100
AcDbEntity
  8
1
  6
Continuous
 62
    30
370
    18
100
AcDbLine
 10
371.663895
 20
580.81185
 30
0.0
 11
371.663895
 21
580.24935
 31
0.0
  0
LINE
  5
A7
330
1F
100
AcDbEntity
  8
1
  6
Continuous
 62
    30
370
    18
100
AcDbLine
 10
358.005215
 20
553.416741
 30
0.0
 11
364.163895
 21
553.416741
 31
0.0
  0
LINE
  5
A8
330
1F
100
AcDbEntity
  8
1
  6
Continuous
 62
    30
370
    18
100
AcDbLine
 10
372.163895
 20
584.283383
 30
0.0
 11
372.163895
 21
561.416741
 31
0.0
  0
LINE
  5
A9
330
1F
100
AcDbEntity
  8
1
  6
Continuous
 62
    30
370
    13
100
AcDbLine
 10
375.242842
 20
587.972853
 30
0.0
 11
375.242842
 21
561.495688
 31
0.0
  0
LINE
  5
AA
330
1F
100
AcDbEntity
  8
1
  6
Continuous
 62
    30
370
    13
100
AcDbLine
 10
354.309919
 20
549.028553
 30
0.0
 11
361.495652
 21
549.028553
 31
0.0
  0
LINE
  5
AB
330
1F
100
AcDbEntity
  8
1
  6
Continuous
 62
    30
370
    18
100
AcDbLine
 10
402.322574
 20
553.416741
 30
0.0
 11
396.163895
 21
553.416741
 31
0.0
  0
LINE
  5
AC
330
1F
100
AcDbEntity
  8
1
  6
Continuous
 62
    30
370
    18
100
AcDbLine
 10
388.163895
 20
584.283383
 30
0.0
 11
388.163895
 21
561.416741
 31
0.0
  0
LINE
  5
AD
330
1F
100
AcDbEntity
  8
1
  6
Continuous
 62
    30
370
    13
100
AcDbLine
 10
385.084947
 20
587.972853
 30
0.0
 11
385.084947
 21
561.495688
 31
0.0
  0
LINE
  5
AE
330
1F
100
AcDbEntity
  8
1
  6
Continuous
 62
    30
370
    18
100
AcDbLine
 10
405.394102
 20
545.416741
 30
0.0
 11
354.933688
 21
545.416741
 31
0.0
  0
LINE
  5
AF
330
1F
100
AcDbEntity
  8
1
  6
Continuous
 62
    30
370
    13
100
AcDbLine
 10
406.017871
 20
549.028553
 30
0.0
 11
398.832138
 21
549.028553
 31
0.0
  0
LINE
  5
B0
330
1F
100
AcDbEntity
  8
1
  6
Continuous
 62
    30
370
    13
100
AcDbLine
 10
386.142452
 20
556.236701
 30
0.0
 11
374.185337
 21
556.236701
 31
0.0
  0
LINE
  5
B1
330
1F
100
AcDbEntity
  8
1
  6
Continuous
 62
   252
370
    18
100
AcDbLine
 10
405.394102
 20
545.416741
 30
0.0
 11
405.268116
 21
545.416741
 31
0.0
  0
LINE
  5
B2
330
1F
100
AcDbEntity
  8
1
  6
Continuous
 62
   252
370
    18
100
AcDbLine
 10
355.059673
 20
545.416741
 30
0.0
 11
354.933688
 21
545.416741
 31
0.0
  0
LINE
  5
B3
330
1F
100
AcDbEntity
  8
1
  6
Continuous
 62
   252
370
    18
100
AcDbLine
 10
371.163895
 20
480.416741
 30
0.0
 11
380.163895
 21
480.416741
 31
0.0
  0
LINE
  5
B4
330
1F
100
AcDbEntity
  8
1
  6
Continuous
 62
   252
370
    18
100
AcDbLine
 10
380.163895
 20
480.416741
 30
0.0
 11
389.163895
 21
480.416741
 31
0.0
  0
LINE
  5
B5
330
1F
100
AcDbEntity
  8
1
  6
Continuous
 62
   252
370
    18
100
AcDbLine
 10
390.163895
 20
481.416741
 30
0.0
 11
380.163895
 21
481.416741
 31
0.0
  0
LINE
  5
B6
330
1F
100
AcDbEntity
  8
1
  6
Continuous
 62
   252
370
    18
100
AcDbLine
 10
380.163895
 20
481.416741
 30
0.0
 11
370.163895
 21
481.416741
 31
0.0
  0
LINE
  5
B7
330
1F
100
AcDbEntity
  8
1
  6
Continuous
 62
   252
370
    13
100
AcDbLine
 10
390.163895
 20
512.416741
 30
0.0
 11
370.163895
 21
512.416741
 31
0.0
  0
LINE
  5
B8
330
1F
100
AcDbEntity
  8
1
  6
Continuous
 62
   252
370
    18
100
AcDbLine
 10
355.059673
 20
524.083407
 30
0.0
 11
355.059673
 21
545.416741
 31
0.0
  0
LINE
  5
B9
330
1F
100
AcDbEntity
  8
1
  6
Continuous
 62
   252
370
    18
100
AcDbLine
 10
405.268116
 20
545.416741
 30
0.0
 11
405.268116
 21
524.083407
 31
0.0
  0
LINE
  5
BA
330
1F
100
AcDbEntity
  8
1
  6
Continuous
 62
   252
370
    18
100
AcDbLine
 10
394.896842
 20
545.416741
 30
0.0
 11
390.535169
 21
545.416741
 31
0.0
  0
LINE
  5
BB
330
1F
100
AcDbEntity
  8
1
  6
Continuous
 62
   252
370
    18
100
AcDbLine
 10
394.896842
 20
524.083407
 30
0.0
 11
394.896842
 21
545.416741
 31
0.0
  0
LINE
  5
BC
330
1F
100
AcDbEntity
  8
1
  6
Continuous
 62
   252
370
    18
100
AcDbLine
 10
390.535169
 20
545.416741
 30
0.0
 11
390.535169
 21
524.083407
 31
0.0
  0
LINE
  5
BD
330
1F
100
AcDbEntity
  8
1
  6
Continuous
 62
   252
370
    18
100
AcDbLine
 10
369.79262
 20
524.083407
 30
0.0
 11
369.79262
 21
545.416741
 31
0.0
  0
LINE
  5
BE
330
1F
100
AcDbEntity
  8
1
  6
Continuous
 62
   252
370
    18
100
AcDbLine
 10
369.79262
 20
545.416741
 30
0.0
 11
365.430948
 21
545.416741
 31
0.0
  0
LINE
  5
BF
330
1F
100
AcDbEntity
  8
1
  6
Continuous
 62
   252
370
    18
100
AcDbLine
 10
365.430948
 20
545.416741
 30
0.0
 11
365.430948
 21
524.083407
 31
0.0
  0
LINE
  5
C0
330
1F
100
AcDbEntity
  8
1
  6
Continuous
 62
   252
370
    18
100
AcDbLine
 10
407.663895
 20
524.083407
 30
0.0
 11
352.663895
 21
524.083407
 31
0.0
  0
LINE
  5
C1
330
1F
100
AcDbEntity
  8
1
  6
Continuous
 62
   252
370
    13
100
AcDbLine
 10
407.663895
 20
514.416741
 30
0.0
 11
352.663895
 21
514.416741
 31
0.0
  0
LINE
  5
C2
330
1F
100
AcDbEntity
  8
1
  6
Continuous
 62
   252
370
    18
100
AcDbLine
 10
406.663895
 20
513.416741
 30
0.0
 11
353.663895
 21
513.416741
 31
0.0
  0
LINE
  5
C3
330
1F
100
AcDbEntity
  8
2
  6
Continuous
 62
    30
370
    18
100
AcDbLine
 10
819.547911
 20
643.916741
 30
0.0
 11
819.547911
 21
669.416741
 31
0.0
  0
LINE
  5
C4
330
1F
100
AcDbEntity
  8
2
  6
Continuous
 62
    30
370
    18
100
AcDbLine
 10
803.547911
 20
669.416741
 30
0.0
 11
803.547911
 21
643.916741
 31
0.0
  0
LINE
  5
C5
330
1F
100
AcDbEntity
  8
2
  6
Continuous
 62
    30
370
    18
100
AcDbLine
 10
803.547911
 20
608.916741
 30
0.0
 11
803.547911
 21
583.416741
 31
0.0
  0
LINE
  5
C6
330
1F
100
AcDbEntity
  8
2
  6
Continuous
 62
    30
370
    18
100
AcDbLine
 10
819.547911
 20
583.416741
 30
0.0
 11
819.547911
 21
608.916741
 31
0.0
  0
LINE
  5
C7
330
1F
100
AcDbEntity
  8
2
  6
Continuous
 62
    30
370
    18
100
AcDbLine
 10
819.547911
 20
608.916741
 30
0.0
 11
819.547911
 21
643.916741
 31
0.0
  0
LINE
  5
C8
330
1F
100
AcDbEntity
  8
2
  6
Continuous
 62
    30
370
    18
100
AcDbLine
 10
803.547911
 20
643.916741
 30
0.0
 11
803.547911
 21
608.916741
 31
0.0
  0
LINE
  5
C9
330
1F
100
AcDbEntity
  8
1
  6
Continuous
 62
    30
370
    18
100
AcDbLine
 10
784.449069
 20
574.236701
 30
0.0
 11
786.317704
 21
563.416741
 31
0.0
  0
LINE
  5
CA
330
1F
100
AcDbEntity
  8
1
  6
Continuous
 62
    30
370
    18
100
AcDbLine
 10
836.778117
 20
563.416741
 30
0.0
 11
838.646752
 21
574.236701
 31
0.0
  0
LINE
  5
CB
330
1F
100
AcDbEntity
  8
1
  6
Continuous
 62
   252
370
    18
100
AcDbLine
 10
821.547911
 20
499.416741
 30
0.0
 11
821.547911
 21
530.416741
 31
0.0
  0
LINE
  5
CC
330
1F
100
AcDbEntity
  8
1
  6
Continuous
 62
   252
370
    18
100
AcDbLine
 10
801.547911
 20
530.416741
 30
0.0
 11
801.547911
 21
499.416741
 31
0.0
  0
LINE
  5
CD
330
1F
100
AcDbEntity
  8
1
  6
Continuous
 62
   252
370
    18
100
AcDbLine
 10
820.547911
 20
498.416741
 30
0.0
 11
821.547911
 21
499.416741
 31
0.0
  0
LINE
  5
CE
330
1F
100
AcDbEntity
  8
1
  6
Continuous
 62
   252
370
    18
100
AcDbLine
 10
801.547911
 20
499.416741
 30
0.0
 11
802.547911
 21
498.416741
 31
0.0
  0
LINE
  5
CF
330
1F
100
AcDbEntity
  8
1
  6
Continuous
 62
   252
370
    18
100
AcDbLine
 10
784.047911
 20
542.083407
 30
0.0
 11
784.047911
 21
532.416741
 31
0.0
  0
LINE
  5
D0
330
1F
100
AcDbEntity
  8
1
  6
Continuous
 62
   252
370
    18
100
AcDbLine
 10
839.047911
 20
532.416741
 30
0.0
 11
839.047911
 21
542.083407
 31
0.0
  0
LINE
  5
D1
330
1F
100
AcDbEntity
  8
2
  6
Continuous
 62
    30
370
    13
100
AcDbLine
 10
819.547911
 20
608.916741
 30
0.0
 11
811.547911
 21
608.916741
 31
0.0
  0
LINE
  5
D2
330
1F
100
AcDbEntity
  8
2
  6
Continuous
 62
    30
370
    13
100
AcDbLine
 10
811.547911
 20
608.916741
 30
0.0
 11
803.547911
 21
608.916741
 31
0.0
  0
LINE
  5
D3
330
1F
100
AcDbEntity
  8
2
  6
Continuous
 62
    30
370
    13
100
AcDbLine
 10
819.547911
 20
643.916741
 30
0.0
 11
811.547911
 21
643.916741
 31
0.0
  0
LINE
  5
D4
330
1F
100
AcDbEntity
  8
2
  6
Continuous
 62
    30
370
    13
100
AcDbLine
 10
811.547911
 20
643.916741
 30
0.0
 11
803.547911
 21
643.916741
 31
0.0
  0
LINE
  5
D5
330
1F
100
AcDbEntity
  8
1
  6
Continuous
 62
    30
370
    13
100
AcDbLine
 10
834.909203
 20
579.416741
 30
0.0
 11
838.597829
 21
579.495688
 31
0.0
  0
LINE
  5
D6
330
1F
100
AcDbEntity
  8
1
  6
Continuous
 62
    30
370
    13
100
AcDbLine
 10
788.186618
 20
579.416741
 30
0.0
 11
784.497993
 21
579.495688
 31
0.0
  0
LINE
  5
D7
330
1F
100
AcDbEntity
  8
1
  6
Continuous
 62
    30
370
    13
100
AcDbLine
 10
788.186618
 20
579.416741
 30
0.0
 11
797.944143
 21
579.416741
 31
0.0
  0
LINE
  5
D8
330
1F
100
AcDbEntity
  8
1
  6
Continuous
 62
    30
370
    13
100
AcDbLine
 10
825.151679
 20
579.416741
 30
0.0
 11
834.909203
 21
579.416741
 31
0.0
  0
LINE
  5
D9
330
1F
100
AcDbEntity
  8
1
  6
Continuous
 62
    30
370
    13
100
AcDbLine
 10
801.654261
 20
579.962195
 30
0.0
 11
797.944143
 21
579.416741
 31
0.0
  0
LINE
  5
DA
330
1F
100
AcDbEntity
  8
1
  6
Continuous
 62
    30
370
    13
100
AcDbLine
 10
821.44156
 20
579.962195
 30
0.0
 11
825.151679
 21
579.416741
 31
0.0
  0
LINE
  5
DB
330
1F
100
AcDbEntity
  8
1
  6
Continuous
 62
    30
370
    18
100
AcDbLine
 10
796.21797
 20
571.416741
 30
0.0
 11
826.877851
 21
571.416741
 31
0.0
  0
LINE
  5
DC
330
1F
100
AcDbEntity
  8
1
  6
Continuous
 62
    30
370
    13
100
AcDbLine
 10
829.434352
 20
567.028553
 30
0.0
 11
793.661469
 21
567.028553
 31
0.0
  0
LINE
  5
DD
330
1F
100
AcDbEntity
  8
1
  6
Continuous
 62
    30
370
    18
100
AcDbLine
 10
786.317704
 20
563.416741
 30
0.0
 11
836.778117
 21
563.416741
 31
0.0
  0
LINE
  5
DE
330
1F
100
AcDbEntity
  8
1
  6
Continuous
 62
    30
370
    13
100
AcDbLine
 10
784.449069
 20
574.236701
 30
0.0
 11
785.116791
 21
574.236701
 31
0.0
  0
LINE
  5
DF
330
1F
100
AcDbEntity
  8
1
  6
Continuous
 62
    30
370
    13
100
AcDbLine
 10
838.646752
 20
574.236701
 30
0.0
 11
837.97903
 21
574.236701
 31
0.0
  0
LINE
  5
E0
330
1F
100
AcDbEntity
  8
1
  6
Continuous
 62
   252
370
    18
100
AcDbLine
 10
820.547911
 20
498.416741
 30
0.0
 11
802.547911
 21
498.416741
 31
0.0
  0
LINE
  5
E1
330
1F
100
AcDbEntity
  8
1
  6
Continuous
 62
   252
370
    18
100
AcDbLine
 10
821.547911
 20
499.416741
 30
0.0
 11
801.547911
 21
499.416741
 31
0.0
  0
LINE
  5
E2
330
1F
100
AcDbEntity
  8
1
  6
Continuous
 62
   252
370
    13
100
AcDbLine
 10
821.547911
 20
530.416741
 30
0.0
 11
801.547911
 21
530.416741
 31
0.0
  0
LINE
  5
E3
330
1F
100
AcDbEntity
  8
1
  6
Continuous
 62
   252
370
    18
100
AcDbLine
 10
791.066124
 20
563.416741
 30
0.0
 11
788.547911
 21
563.416741
 31
0.0
  0
LINE
  5
E4
330
1F
100
AcDbEntity
  8
1
  6
Continuous
 62
   252
370
    18
100
AcDbLine
 10
788.547911
 20
563.416741
 30
0.0
 11
788.547911
 21
542.083407
 31
0.0
  0
LINE
  5
E5
330
1F
100
AcDbEntity
  8
1
  6
Continuous
 62
   252
370
    18
100
AcDbLine
 10
834.547911
 20
563.416741
 30
0.0
 11
832.029698
 21
563.416741
 31
0.0
  0
LINE
  5
E6
330
1F
100
AcDbEntity
  8
1
  6
Continuous
 62
   252
370
    18
100
AcDbLine
 10
834.547911
 20
542.083407
 30
0.0
 11
834.547911
 21
563.416741
 31
0.0
  0
LINE
  5
E7
330
1F
100
AcDbEntity
  8
1
  6
Continuous
 62
   252
370
    18
100
AcDbLine
 10
832.029698
 20
563.416741
 30
0.0
 11
832.029698
 21
542.083407
 31
0.0
  0
LINE
  5
E8
330
1F
100
AcDbEntity
  8
1
  6
Continuous
 62
   252
370
    18
100
AcDbLine
 10
791.066124
 20
542.083407
 30
0.0
 11
791.066124
 21
563.416741
 31
0.0
  0
LINE
  5
E9
330
1F
100
AcDbEntity
  8
1
  6
Continuous
 62
   252
370
    18
100
AcDbLine
 10
814.066124
 20
542.083407
 30
0.0
 11
814.066124
 21
563.416741
 31
0.0
  0
LINE
  5
EA
330
1F
100
AcDbEntity
  8
1
  6
Continuous
 62
   252
370
    18
100
AcDbLine
 10
814.066124
 20
563.416741
 30
0.0
 11
809.029698
 21
563.416741
 31
0.0
  0
LINE
  5
EB
330
1F
100
AcDbEntity
  8
1
  6
Continuous
 62
   252
370
    18
100
AcDbLine
 10
809.029698
 20
563.416741
 30
0.0
 11
809.029698
 21
542.083407
 31
0.0
  0
LINE
  5
EC
330
1F
100
AcDbEntity
  8
1
  6
Continuous
 62
   252
370
    18
100
AcDbLine
 10
839.047911
 20
542.083407
 30
0.0
 11
784.047911
 21
542.083407
 31
0.0
  0
LINE
  5
ED
330
1F
100
AcDbEntity
  8
1
  6
Continuous
 62
   252
370
    13
100
AcDbLine
 10
784.047911
 20
532.416741
 30
0.0
 11
839.047911
 21
532.416741
 31
0.0
  0
LINE
  5
EE
330
1F
100
AcDbEntity
  8
1
  6
Continuous
 62
   252
370
    18
100
AcDbLine
 10
838.047911
 20
531.416741
 30
0.0
 11
785.047911
 21
531.416741
 31
0.0
  0
LINE
  5
EF
330
1F
100
AcDbEntity
  8
2
  6
Continuous
 62
    30
370
    18
100
AcDbLine
 10
354.663895
 20
139.840966
 30
0.0
 11
405.663895
 21
139.840966
 31
0.0
  0
LINE
  5
F0
330
1F
100
AcDbEntity
  8
2
  6
Continuous
 62
    30
370
    18
100
AcDbLine
 10
405.663895
 20
155.840966
 30
0.0
 11
354.663895
 21
155.840966
 31
0.0
  0
LINE
  5
F1
330
1F
100
AcDbEntity
  8
1
  6
Continuous
 62
    30
370
    18
100
AcDbLine
 10
388.663895
 20
155.887465
 30
0.0
 11
388.163895
 21
155.887465
 31
0.0
  0
LINE
  5
F2
330
1F
100
AcDbEntity
  8
1
  6
Continuous
 62
    30
370
    18
100
AcDbLine
 10
371.663895
 20
139.794467
 30
0.0
 11
372.163895
 21
139.794467
 31
0.0
  0
LINE
  5
F3
330
1F
100
AcDbEntity
  8
1
  6
Continuous
 62
    30
370
    18
100
AcDbLine
 10
388.663895
 20
157.215966
 30
0.0
 11
388.163895
 21
157.215966
 31
0.0
  0
LINE
  5
F4
330
1F
100
AcDbEntity
  8
1
  6
Continuous
 62
    30
370
    18
100
AcDbLine
 10
388.163895
 20
156.090966
 30
0.0
 11
388.663895
 21
156.090966
 31
0.0
  0
LINE
  5
F5
330
1F
100
AcDbEntity
  8
1
  6
Continuous
 62
    30
370
    18
100
AcDbLine
 10
371.663895
 20
138.465966
 30
0.0
 11
372.163895
 21
138.465966
 31
0.0
  0
LINE
  5
F6
330
1F
100
AcDbEntity
  8
1
  6
Continuous
 62
    30
370
    18
100
AcDbLine
 10
372.163895
 20
139.590966
 30
0.0
 11
371.663895
 21
139.590966
 31
0.0
  0
LINE
  5
F7
330
1F
100
AcDbEntity
  8
1
  6
Continuous
 62
    30
370
    13
100
AcDbLine
 10
361.456152
 20
165.765252
 30
0.0
 11
364.163895
 21
163.170907
 31
0.0
  0
LINE
  5
F8
330
1F
100
AcDbEntity
  8
1
  6
Continuous
 62
    30
370
    13
100
AcDbLine
 10
361.456152
 20
129.91668
 30
0.0
 11
364.163895
 21
132.511025
 31
0.0
  0
LINE
  5
F9
330
1F
100
AcDbEntity
  8
1
  6
Continuous
 62
    30
370
    13
100
AcDbLine
 10
364.163895
 20
132.511025
 30
0.0
 11
364.163895
 21
139.841132
 31
0.0
  0
LINE
  5
FA
330
1F
100
AcDbEntity
  8
1
  6
Continuous
 62
    30
370
    13
100
AcDbLine
 10
364.163895
 20
155.8408
 30
0.0
 11
364.163895
 21
163.170907
 31
0.0
  0
LINE
  5
FB
330
1F
100
AcDbEntity
  8
1
  6
Continuous
 62
    30
370
    18
100
AcDbLine
 10
388.663895
 20
157.215966
 30
0.0
 11
388.663895
 21
156.090966
 31
0.0
  0
LINE
  5
FC
330
1F
100
AcDbEntity
  8
1
  6
Continuous
 62
    30
370
    18
100
AcDbLine
 10
371.663895
 20
138.465966
 30
0.0
 11
371.663895
 21
139.590966
 31
0.0
  0
LINE
  5
FD
330
1F
100
AcDbEntity
  8
1
  6
Continuous
 62
    30
370
    18
100
AcDbLine
 10
388.663895
 20
155.887465
 30
0.0
 11
388.663895
 21
155.840961
 31
0.0
  0
LINE
  5
FE
330
1F
100
AcDbEntity
  8
1
  6
Continuous
 62
    30
370
    18
100
AcDbLine
 10
371.663895
 20
139.794467
 30
0.0
 11
371.663895
 21
139.840971
 31
0.0
  0
LINE
  5
FF
330
1F
100
AcDbEntity
  8
1
  6
Continuous
 62
    30
370
    18
100
AcDbLine
 10
372.163895
 20
124.479673
 30
0.0
 11
372.163895
 21
139.84201
 31
0.0
  0
LINE
  5
100
330
1F
100
AcDbEntity
  8
1
  6
Continuous
 62
    30
370
    18
100
AcDbLine
 10
372.163895
 20
155.839923
 30
0.0
 11
372.163895
 21
171.202259
 31
0.0
  0
LINE
  5
101
330
1F
100
AcDbEntity
  8
1
  6
Continuous
 62
    30
370
    13
100
AcDbLine
 10
375.242842
 20
174.890884
 30
0.0
 11
375.242842
 21
155.840398
 31
0.0
  0
LINE
  5
102
330
1F
100
AcDbEntity
  8
1
  6
Continuous
 62
    30
370
    13
100
AcDbLine
 10
375.242842
 20
139.841534
 30
0.0
 11
375.242842
 21
120.791048
 31
0.0
  0
LINE
  5
103
330
1F
100
AcDbEntity
  8
1
  6
Continuous
 62
    30
370
    13
100
AcDbLine
 10
398.871637
 20
129.91668
 30
0.0
 11
396.163895
 21
132.511025
 31
0.0
  0
LINE
  5
104
330
1F
100
AcDbEntity
  8
1
  6
Continuous
 62
    30
370
    13
100
AcDbLine
 10
396.163895
 20
139.841132
 30
0.0
 11
396.163895
 21
132.511025
 31
0.0
  0
LINE
  5
105
330
1F
100
AcDbEntity
  8
1
  6
Continuous
 62
    30
370
    13
100
AcDbLine
 10
396.163895
 20
163.170907
 30
0.0
 11
396.163895
 21
155.8408
 31
0.0
  0
LINE
  5
106
330
1F
100
AcDbEntity
  8
1
  6
Continuous
 62
    30
370
    13
100
AcDbLine
 10
398.871637
 20
165.765252
 30
0.0
 11
396.163895
 21
163.170907
 31
0.0
  0
LINE
  5
107
330
1F
100
AcDbEntity
  8
1
  6
Continuous
 62
    30
370
    18
100
AcDbLine
 10
388.163895
 20
171.202259
 30
0.0
 11
388.163895
 21
155.839923
 31
0.0
  0
LINE
  5
108
330
1F
100
AcDbEntity
  8
1
  6
Continuous
 62
    30
370
    18
100
AcDbLine
 10
388.163895
 20
139.84201
 30
0.0
 11
388.163895
 21
124.479673
 31
0.0
  0
LINE
  5
109
330
1F
100
AcDbEntity
  8
1
  6
Continuous
 62
    30
370
    13
100
AcDbLine
 10
385.084947
 20
120.791048
 30
0.0
 11
385.084947
 21
139.841534
 31
0.0
  0
LINE
  5
10A
330
1F
100
AcDbEntity
  8
1
  6
Continuous
 62
    30
370
    13
100
AcDbLine
 10
385.084947
 20
155.840398
 30
0.0
 11
385.084947
 21
174.890884
 31
0.0
  0
ARC
  5
10B
330
1F
100
AcDbEntity
  8
2
  6
Continuous
 62
    30
370
    18
100
AcDbCircle
 10
380.163895
 20
590.916741
 30
0.0
 40
33.5
100
AcDbArc
 50
180.0
 51
255.225938
  0
ARC
  5
10C
330
1F
100
AcDbEntity
  8
2
  6
Continuous
 62
    30
370
    18
100
AcDbCircle
 10
380.163895
 20
590.916741
 30
0.0
 40
33.5
100
AcDbArc
 50
284.799375
 51
0.0
  0
ARC
  5
10D
330
1F
100
AcDbEntity
  8
2
  6
Continuous
 62
    30
370
    18
100
AcDbCircle
 10
380.163895
 20
625.916741
 30
0.0
 40
33.49999999999999
100
AcDbArc
 50
0.0
 51
180.0
  0
ARC
  5
10E
330
1F
100
AcDbEntity
  8
2
  6
Continuous
 62
    30
370
    18
100
AcDbCircle
 10
380.163895
 20
625.916741
 30
0.0
 40
17.49999999999999
100
AcDbArc
 50
0.0
 51
180.0
  0
ARC
  5
10F
330
1F
100
AcDbEntity
  8
1
  6
Continuous
 62
    30
370
    18
100
AcDbCircle
 10
358.005215
 20
549.666741
 30
0.0
 40
3.75
100
AcDbArc
 50
90.0
 51
189.798475
  0
ARC
  5
110
330
1F
100
AcDbEntity
  8
1
  6
Continuous
 62
    30
370
    18
100
AcDbCircle
 10
402.322574
 20
549.666741
 30
0.0
 40
3.75
100
AcDbArc
 50
350.201525
 51
90.0
  0
ARC
  5
111
330
1F
100
AcDbEntity
  8
1
  6
Continuous
 62
    30
370
    18
100
AcDbCircle
 10
375.913895
 20
584.283383
 30
0.0
 40
3.75
100
AcDbArc
 50
100.308453
 51
180.0
  0
ARC
  5
112
330
1F
100
AcDbEntity
  8
1
  6
Continuous
 62
    30
370
    18
100
AcDbCircle
 10
384.413895
 20
584.283383
 30
0.0
 40
3.75
100
AcDbArc
 50
0.0
 51
79.691547
  0
ARC
  5
113
330
1F
100
AcDbEntity
  8
1
  6
Continuous
 62
    30
370
    18
100
AcDbCircle
 10
380.163895
 20
560.916741
 30
0.0
 40
27.5
100
AcDbArc
 50
79.691547
 51
100.308453
  0
ARC
  5
114
330
1F
100
AcDbEntity
  8
1
  6
Continuous
 62
   252
370
    18
100
AcDbCircle
 10
369.163895
 20
512.416741
 30
0.0
 40
1.0
100
AcDbArc
 50
0.0
 51
90.0
  0
ARC
  5
115
330
1F
100
AcDbEntity
  8
1
  6
Continuous
 62
   252
370
    18
100
AcDbCircle
 10
391.163895
 20
512.416741
 30
0.0
 40
1.0
100
AcDbArc
 50
90.0
 51
180.0
  0
ARC
  5
116
330
1F
100
AcDbEntity
  8
1
  6
Continuous
 62
   252
370
    18
100
AcDbCircle
 10
353.663895
 20
514.416741
 30
0.0
 40
1.0
100
AcDbArc
 50
180.0
 51
270.0
  0
ARC
  5
117
330
1F
100
AcDbEntity
  8
1
  6
Continuous
 62
   252
370
    18
100
AcDbCircle
 10
406.663895
 20
514.416741
 30
0.0
 40
1.0
100
AcDbArc
 50
270.0
 51
0.0
  0
ARC
  5
118
330
1F
100
AcDbEntity
  8
2
  6
Continuous
 62
    30
370
    18
100
AcDbCircle
 10
380.163895
 20
590.916741
 30
0.0
 40
17.5
100
AcDbArc
 50
297.2025
 51
0.0
  0
ARC
  5
119
330
1F
100
AcDbEntity
  8
2
  6
Continuous
 62
    30
370
    18
100
AcDbCircle
 10
380.163895
 20
590.916741
 30
0.0
 40
17.5
100
AcDbArc
 50
180.0
 51
242.7975
  0
ARC
  5
11A
330
1F
100
AcDbEntity
  8
2
  6
Continuous
 62
    30
370
    18
100
AcDbCircle
 10
811.547911
 20
669.416741
 30
0.0
 40
8.0
100
AcDbArc
 50
0.0
 51
180.0
  0
ARC
  5
11B
330
1F
100
AcDbEntity
  8
2
  6
Continuous
 62
    30
370
    18
100
AcDbCircle
 10
811.547911
 20
583.416741
 30
0.0
 40
8.0
100
AcDbArc
 50
180.0
 51
0.0
  0
ARC
  5
11C
330
1F
100
AcDbEntity
  8
1
  6
Continuous
 62
    30
370
    18
100
AcDbCircle
 10
811.547911
 20
578.916741
 30
0.0
 40
27.5
100
AcDbArc
 50
0.0
 51
73.090207
  0
ARC
  5
11D
330
1F
100
AcDbEntity
  8
1
  6
Continuous
 62
    30
370
    18
100
AcDbCircle
 10
811.547911
 20
578.916741
 30
0.0
 40
27.5
100
AcDbArc
 50
106.909923
 51
189.798475
  0
ARC
  5
11E
330
1F
100
AcDbEntity
  8
1
  6
Continuous
 62
    30
370
    18
100
AcDbCircle
 10
811.547911
 20
578.916741
 30
0.0
 40
27.5
100
AcDbArc
 50
350.201525
 51
0.0
  0
ARC
  5
11F
330
1F
100
AcDbEntity
  8
1
  6
Continuous
 62
   252
370
    18
100
AcDbCircle
 10
800.547911
 20
530.416741
 30
0.0
 40
1.0
100
AcDbArc
 50
0.0
 51
90.0
  0
ARC
  5
120
330
1F
100
AcDbEntity
  8
1
  6
Continuous
 62
   252
370
    18
100
AcDbCircle
 10
822.547911
 20
530.416741
 30
0.0
 40
1.0
100
AcDbArc
 50
90.0
 51
180.0
  0
ARC
  5
121
330
1F
100
AcDbEntity
  8
1
  6
Continuous
 62
   252
370
    18
100
AcDbCircle
 10
785.047911
 20
532.416741
 30
0.0
 40
1.0
100
AcDbArc
 50
180.0
 51
270.0
  0
ARC
  5
122
330
1F
100
AcDbEntity
  8
1
  6
Continuous
 62
   252
370
    18
100
AcDbCircle
 10
838.047911
 20
532.416741
 30
0.0
 40
1.0
100
AcDbArc
 50
270.0
 51
0.0
  0
ARC
  5
123
330
1F
100
AcDbEntity
  8
1
  6
Continuous
 62
    30
370
    18
100
AcDbCircle
 10
811.547911
 20
581.416741
 30
0.0
 40
10.0
100
AcDbArc
 50
351.636398
 51
36.871359
  0
ARC
  5
124
330
1F
100
AcDbEntity
  8
1
  6
Continuous
 62
    30
370
    18
100
AcDbCircle
 10
811.547911
 20
581.416741
 30
0.0
 40
10.0
100
AcDbArc
 50
143.128641
 51
188.363602
  0
ARC
  5
125
330
1F
100
AcDbEntity
  8
1
  6
Continuous
 62
    30
370
    13
100
AcDbCircle
 10
811.547911
 20
581.416741
 30
0.0
 40
13.75
100
AcDbArc
 50
125.576886
 51
188.363602
  0
ARC
  5
126
330
1F
100
AcDbEntity
  8
1
  6
Continuous
 62
    30
370
    13
100
AcDbCircle
 10
811.547911
 20
581.416741
 30
0.0
 40
13.75
100
AcDbArc
 50
351.636398
 51
54.423114
  0
ARC
  5
127
330
1F
100
AcDbEntity
  8
1
  6
Continuous
 62
    30
370
    13
100
AcDbCircle
 10
811.547911
 20
578.916741
 30
0.0
 40
27.05611282126887
100
AcDbArc
 50
107.197167
 51
178.77389
  0
ARC
  5
128
330
1F
100
AcDbEntity
  8
1
  6
Continuous
 62
    30
370
    13
100
AcDbCircle
 10
811.547911
 20
578.916741
 30
0.0
 40
27.05611282126887
100
AcDbArc
 50
1.22611
 51
72.802833
  0
ARC
  5
129
330
1F
100
AcDbEntity
  8
1
  6
Continuous
 62
    30
370
    13
100
AcDbCircle
 10
811.547911
 20
578.916741
 30
0.0
 40
23.36664289109584
100
AcDbArc
 50
1.22611
 51
69.981488
  0
ARC
  5
12A
330
1F
100
AcDbEntity
  8
1
  6
Continuous
 62
    30
370
    13
100
AcDbCircle
 10
811.547911
 20
578.916741
 30
0.0
 40
23.36664289109584
100
AcDbArc
 50
110.018512
 51
178.77389
  0
ARC
  5
12B
330
1F
100
AcDbEntity
  8
1
  6
Continuous
 62
    30
370
    18
100
AcDbCircle
 10
819.03191
 20
599.423399
 30
0.0
 40
0.5624999999999991
100
AcDbArc
 50
0.0
 51
23.461832
  0
ARC
  5
12C
330
1F
100
AcDbEntity
  8
1
  6
Continuous
 62
    30
370
    18
100
AcDbCircle
 10
819.03191
 20
599.423399
 30
0.0
 40
0.5624999999999991
100
AcDbArc
 50
336.538168
 51
0.0
  0
CIRCLE
  5
12D
330
1F
100
AcDbEntity
  8
1
  6
Continuous
 62
    30
370
    18
100
AcDbCircle
 10
820.360411
 20
598.81185
 30
0.0
 40
0.5625000000000001
  0
ARC
  5
12E
330
1F
100
AcDbEntity
  8
1
  6
Continuous
 62
    30
370
    18
100
AcDbCircle
 10
380.163895
 20
147.840966
 30
0.0
 40
25.90867953587817
100
AcDbArc
 50
316.225209
 51
342.0154
  0
ARC
  5
12F
330
1F
100
AcDbEntity
  8
1
  6
Continuous
 62
    30
370
    18
100
AcDbCircle
 10
380.163895
 20
147.840966
 30
0.0
 40
25.90867953587817
100
AcDbArc
 50
17.9846
 51
43.774791
  0
ARC
  5
130
330
1F
100
AcDbEntity
  8
1
  6
Continuous
 62
    30
370
    18
100
AcDbCircle
 10
380.163895
 20
147.840966
 30
0.0
 40
25.90867953587817
100
AcDbArc
 50
136.225209
 51
162.0154
  0
ARC
  5
131
330
1F
100
AcDbEntity
  8
1
  6
Continuous
 62
    30
370
    18
100
AcDbCircle
 10
380.163895
 20
147.840966
 30
0.0
 40
25.90867953587817
100
AcDbArc
 50
197.9846
 51
223.774791
  0
ARC
  5
132
330
1F
100
AcDbEntity
  8
1
  6
Continuous
 62
    30
370
    18
100
AcDbCircle
 10
380.163895
 20
147.840966
 30
0.0
 40
27.5
100
AcDbArc
 50
270.0
 51
280.354405
  0
ARC
  5
133
330
1F
100
AcDbEntity
  8
1
  6
Continuous
 62
    30
370
    18
100
AcDbCircle
 10
380.163895
 20
147.840966
 30
0.0
 40
27.5
100
AcDbArc
 50
79.616231
 51
100.354411
  0
ARC
  5
134
330
1F
100
AcDbEntity
  8
1
  6
Continuous
 62
    30
370
    18
100
AcDbCircle
 10
380.163895
 20
147.840966
 30
0.0
 40
27.5
100
AcDbArc
 50
259.616169
 51
270.0
  0
ARC
  5
135
330
1F
100
AcDbEntity
  8
2
  6
Continuous
 62
    30
370
    18
100
AcDbCircle
 10
405.663895
 20
147.840966
 30
0.0
 40
8.0
100
AcDbArc
 50
269.999997
 51
0.0
  0
ARC
  5
136
330
1F
100
AcDbEntity
  8
2
  6
Continuous
 62
    30
370
    18
100
AcDbCircle
 10
405.663895
 20
147.840966
 30
0.0
 40
8.0
100
AcDbArc
 50
0.0
 51
90.000003
  0
ARC
  5
137
330
1F
100
AcDbEntity
  8
2
  6
Continuous
 62
    30
370
    18
100
AcDbCircle
 10
354.663895
 20
147.840966
 30
0.0
 40
8.0
100
AcDbArc
 50
180.0
 51
270.000003
  0
ARC
  5
138
330
1F
100
AcDbEntity
  8
2
  6
Continuous
 62
    30
370
    18
100
AcDbCircle
 10
354.663895
 20
147.840966
 30
0.0
 40
8.0
100
AcDbArc
 50
89.999997
 51
180.0
  0
ARC
  5
139
330
1F
100
AcDbEntity
  8
1
  6
Continuous
 62
    30
370
    13
100
AcDbCircle
 10
380.163895
 20
147.840966
 30
0.0
 40
22.15867953587817
100
AcDbArc
 50
136.225209
 51
158.837625
  0
ARC
  5
13A
330
1F
100
AcDbEntity
  8
1
  6
Continuous
 62
    30
370
    13
100
AcDbCircle
 10
380.163895
 20
147.840966
 30
0.0
 40
22.15867953587817
100
AcDbArc
 50
201.162375
 51
223.774791
  0
ARC
  5
13B
330
1F
100
AcDbEntity
  8
1
  6
Continuous
 62
    30
370
    13
100
AcDbCircle
 10
380.163895
 20
147.840966
 30
0.0
 40
22.15867953587817
100
AcDbArc
 50
316.225209
 51
338.837625
  0
ARC
  5
13C
330
1F
100
AcDbEntity
  8
1
  6
Continuous
 62
    30
370
    13
100
AcDbCircle
 10
380.163895
 20
147.840966
 30
0.0
 40
22.15867953587817
100
AcDbArc
 50
21.162375
 51
43.774791
  0
ARC
  5
13D
330
1F
100
AcDbEntity
  8
1
  6
Continuous
 62
   252
370
    18
100
AcDbCircle
 10
380.163895
 20
147.840966
 30
0.0
 40
27.5
100
AcDbArc
 50
280.350001
 51
343.175626
  0
ARC
  5
13E
330
1F
100
AcDbEntity
  8
1
  6
Continuous
 62
   252
370
    18
100
AcDbCircle
 10
380.163895
 20
147.840966
 30
0.0
 40
27.5
100
AcDbArc
 50
196.818751
 51
259.610625
  0
ARC
  5
13F
330
1F
100
AcDbEntity
  8
1
  6
Continuous
 62
   252
370
    18
100
AcDbCircle
 10
380.163895
 20
147.840966
 30
0.0
 40
27.5
100
AcDbArc
 50
101.176873
 51
163.181249
  0
ARC
  5
140
330
1F
100
AcDbEntity
  8
1
  6
Continuous
 62
   252
370
    18
100
AcDbCircle
 10
380.163895
 20
147.840966
 30
0.0
 40
27.5
100
AcDbArc
 50
16.824376
 51
79.042501
  0
ELLIPSE
  5
141
330
1F
100
AcDbEntity
  8
1
  6
Continuous
 62
    30
370
    13
100
AcDbEllipse
 10
375.913895
 20
561.416741
 30
0.0
 11
-3.75
 21
0.0
 31
0.0
210
0.0
220
0.0
230
1.0
 40
0.021398
 41
4.892305426075669
 42
6.283185307179586
  0
ELLIPSE
  5
142
330
1F
100
AcDbEntity
  8
1
  6
Continuous
 62
    30
370
    13
100
AcDbEllipse
 10
385.327194
 20
556.874888
 30
0.0
 11
-3.45852138940478
 21
-1.449527439902273
 31
0.0
210
0.0
220
0.0
230
1.0
 40
0.243207
 41
1.705928408347063
 42
3.141592653589793
  0
ELLIPSE
  5
143
330
1F
100
AcDbEntity
  8
1
  6
Continuous
 62
    30
370
    13
100
AcDbEllipse
 10
384.413895
 20
561.416741
 30
0.0
 11
3.75
 21
0.0
 31
0.0
210
0.0
220
0.0
230
1.0
 40
0.021398
 41
0.0
 42
1.390879881103917
  0
ELLIPSE
  5
144
330
1F
100
AcDbEntity
  8
1
  6
Continuous
 62
    30
370
    13
100
AcDbEllipse
 10
375.000595
 20
556.874888
 30
0.0
 11
-3.45852138940478
 21
1.449527439902272
 31
0.0
210
0.0
220
0.0
230
1.0
 40
0.243207
 41
0.0
 42
1.43566424524273
  0
ELLIPSE
  5
145
330
1F
100
AcDbEntity
  8
1
  6
Continuous
 62
    30
370
    13
100
AcDbEllipse
 10
364.163895
 20
549.666741
 30
0.0
 11
0.0
 21
-3.75
 31
0.0
210
0.0
220
0.0
230
1.0
 40
0.722065
 41
3.141592653589793
 42
4.883404628822378
  0
ELLIPSE
  5
146
330
1F
100
AcDbEntity
  8
1
  6
Continuous
 62
    30
370
    13
100
AcDbEllipse
 10
396.163895
 20
549.666741
 30
0.0
 11
0.0
 21
-3.75
 31
0.0
210
0.0
220
0.0
230
1.0
 40
0.722065
 41
1.399780678357208
 42
3.141592653589793
  0
ELLIPSE
  5
147
330
1F
100
AcDbEntity
  8
1
  6
Continuous
 62
    30
370
    13
100
AcDbEllipse
 10
788.721035
 20
574.874888
 30
0.0
 11
-3.618653058272865
 21
-0.9837936998438451
 31
0.0
210
0.0
220
0.0
230
1.0
 40
0.374935
 41
4.610807368213599
 42
6.046471613456334
  0
ELLIPSE
  5
148
330
1F
100
AcDbEntity
  8
1
  6
Continuous
 62
    30
370
    13
100
AcDbEllipse
 10
834.374787
 20
574.874888
 30
0.0
 11
-3.618653058272864
 21
0.9837936998438511
 31
0.0
210
0.0
220
0.0
230
1.0
 40
0.374935
 41
3.378306347313051
 42
4.813970592555781
  0
ELLIPSE
  5
149
330
1F
100
AcDbEntity
  8
1
  6
Continuous
 62
    30
370
    13
100
AcDbEllipse
 10
826.877851
 20
567.666741
 30
0.0
 11
0.0
 21
-3.75
 31
0.0
210
0.0
220
0.0
230
1.0
 40
0.691826
 41
1.399780678357209
 42
3.141592653589793
  0
ELLIPSE
  5
14A
330
1F
100
AcDbEntity
  8
1
  6
Continuous
 62
    30
370
    13
100
AcDbEllipse
 10
796.21797
 20
567.666741
 30
0.0
 11
0.0
 21
-3.75
 31
0.0
210
0.0
220
0.0
230
1.0
 40
0.691826
 41
3.141592653589793
 42
4.883404628822378
  0
ELLIPSE
  5
14B
330
1F
100
AcDbEntity
  8
1
  6
Continuous
 62
    30
370
    13
100
AcDbEllipse
 10
375.000595
 20
125.01409
 30
0.0
 11
2.040755001509359
 21
3.1460799455536
 31
0.0
210
0.0
220
0.0
230
1.0
 40
0.894581
 41
2.096592570085243
 42
3.139423278993562
  0
ELLIPSE
  5
14C
330
1F
100
AcDbEntity
  8
1
  6
Continuous
 62
    30
370
    13
100
AcDbEllipse
 10
375.000595
 20
170.667842
 30
0.0
 11
-2.040755001509346
 21
3.146079945553606
 31
0.0
210
0.0
220
0.0
230
1.0
 40
0.894581
 41
0.0022367431870052
 42
1.045000083504553
  0
ELLIPSE
  5
14D
330
1F
100
AcDbEntity
  8
1
  6
Continuous
 62
    30
370
    13
100
AcDbEllipse
 10
385.327194
 20
125.01409
 30
0.0
 11
2.040755001509353
 21
-3.146079945553604
 31
0.0
210
0.0
220
0.0
230
1.0
 40
0.894581
 41
0.0022367431870052
 42
1.045000083504553
  0
ELLIPSE
  5
14E
330
1F
100
AcDbEntity
  8
1
  6
Continuous
 62
    30
370
    13
100
AcDbEllipse
 10
385.327194
 20
170.667842
 30
0.0
 11
-2.040755001509352
 21
-3.146079945553604
 31
0.0
210
0.0
220
0.0
230
1.0
 40
0.894581
 41
2.096592570085242
 42
3.139423278993557
  0
ELLIPSE
  5
14F
330
1F
100
AcDbEntity
  8
1
  6
Continuous
 62
    30
370
    18
100
AcDbEllipse
 10
384.413895
 20
171.202259
 30
0.0
 11
3.75
 21
0.0
 31
0.0
210
0.0
220
0.0
230
1.0
 40
0.999771
 41
0.0
 42
0.1947448300471607
  0
ELLIPSE
  5
150
330
1F
100
AcDbEntity
  8
1
  6
Continuous
 62
    30
370
    13
100
AcDbEllipse
 10
384.413895
 20
171.202259
 30
0.0
 11
3.75
 21
0.0
 31
0.0
210
0.0
220
0.0
230
1.0
 40
0.999771
 41
0.194744796666871
 42
1.390879881103918
  0
ELLIPSE
  5
151
330
1F
100
AcDbEntity
  8
1
  6
Continuous
 62
    30
370
    18
100
AcDbEllipse
 10
384.413895
 20
124.479673
 30
0.0
 11
3.75
 21
0.0
 31
0.0
210
0.0
220
0.0
230
1.0
 40
0.999771
 41
6.11930065101309
 42
6.283185307179586
  0
ELLIPSE
  5
152
330
1F
100
AcDbEntity
  8
1
  6
Continuous
 62
    30
370
    13
100
AcDbEllipse
 10
384.413895
 20
124.479673
 30
0.0
 11
3.75
 21
0.0
 31
0.0
210
0.0
220
0.0
230
1.0
 40
0.999771
 41
4.892305426075668
 42
6.119300417667346
  0
ELLIPSE
  5
153
330
1F
100
AcDbEntity
  8
1
  6
Continuous
 62
    30
370
    18
100
AcDbEllipse
 10
375.913895
 20
124.479673
 30
0.0
 11
-3.75
 21
0.0
 31
0.0
210
0.0
220
0.0
230
1.0
 40
0.999771
 41
0.0
 42
0.1947448300471607
  0
ELLIPSE
  5
154
330
1F
100
AcDbEntity
  8
1
  6
Continuous
 62
    30
370
    13
100
AcDbEllipse
 10
375.913895
 20
124.479673
 30
0.0
 11
-3.75
 21
0.0
 31
0.0
210
0.0
220
0.0
230
1.0
 40
0.999771
 41
0.194744796666871
 42
1.390879881103918
  0
ELLIPSE
  5
155
330
1F
100
AcDbEntity
  8
1
  6
Continuous
 62
    30
370
    18
100
AcDbEllipse
 10
375.913895
 20
171.202259
 30
0.0
 11
-3.75
 21
0.0
 31
0.0
210
0.0
220
0.0
230
1.0
 40
0.999771
 41
6.11930065101309
 42
6.283185307179587
  0
ELLIPSE
  5
156
330
1F
100
AcDbEntity
  8
1
  6
Continuous
 62
    30
370
    13
100
AcDbEllipse
 10
375.913895
 20
171.202259
 30
0.0
 11
-3.75
 21
0.0
 31
0.0
210
0.0
220
0.0
230
1.0
 40
0.999771
 41
4.892305426075668
 42
6.119300417667346
  0
SPLINE
  5
157
330
1F
100
AcDbEntity
  8
1
  6
Continuous
 62
    30
370
    18
100
AcDbSpline
210
0.0
220
0.0
230
1.0
 70
     8
 71
     3
 72
    18
 73
    14
 74
     0
 42
0.000000001
 43
0.0000000001
 40
0.0
 40
0.0
 40
0.0
 40
0.0
 40
0.2500000000000013
 40
0.2500000000000013
 40
0.5000000000000026
 40
0.5000000000000026
 40
0.6250000000000032
 40
0.6250000000000032
 40
0.6875000000000037
 40
0.6875000000000037
 40
0.7500000000000041
 40
0.7500000000000041
 40
1.0
 40
1.0
 40
1.0
 40
1.0
 10
371.5420737998044
 20
558.3244153930198
 30
0.0
 10
371.640813106175
 20
558.5600038983887
 30
0.0
 10
371.728688599894
 20
558.801250944439
 30
0.0
 10
371.8818282891976
 20
559.2953273826616
 30
0.0
 10
371.9470988205652
 20
559.5481537528836
 30
0.0
 10
372.0268818536479
 20
559.9365698569317
 30
0.0
 10
372.0504498983276
 20
560.0675746334151
 30
0.0
 10
372.0810531157581
 20
560.2664777333807
 30
0.0
 10
372.0904622226764
 20
560.3331783608922
 30
0.0
 10
372.1076551091089
 20
560.4673985202346
 30
0.0
 10
372.1154425543792
 20
560.5349807829922
 30
0.0
 10
372.1499994155913
 20
560.872757570748
 30
0.0
 10
372.1638948357409
 20
561.1441551761116
 30
0.0
 10
372.1638948357409
 20
561.4167405981447
 30
0.0
  0
SPLINE
  5
158
330
1F
100
AcDbEntity
  8
1
  6
Continuous
 62
    30
370
    13
100
AcDbSpline
210
0.0
220
0.0
230
1.0
 70
     8
 71
     3
 72
    19
 73
    15
 74
     0
 42
0.000000001
 43
0.0000000001
 40
0.0
 40
0.0
 40
0.0
 40
0.0
 40
0.2499999999999833
 40
0.2499999999999833
 40
0.2812499999999827
 40
0.2812499999999827
 40
0.3124999999999821
 40
0.3124999999999821
 40
0.3749999999999847
 40
0.4999999999999863
 40
0.4999999999999863
 40
0.7499999999999931
 40
0.7499999999999931
 40
1.0
 40
1.0
 40
1.0
 40
1.0
 10
375.2428422041619
 20
561.4956879665657
 30
0.0
 10
375.2428422041619
 20
561.0381622137236
 30
0.0
 10
375.2198218451807
 20
560.5822668862984
 30
0.0
 10
375.1681851124707
 20
560.0712082543266
 30
0.0
 10
375.1620893193181
 20
560.0144493571013
 30
0.0
 10
375.1491799951073
 20
559.9009824315743
 30
0.0
 10
375.1423687717339
 20
559.8442988240746
 30
0.0
 10
375.1209123943598
 20
559.6747290012011
 30
0.0
 10
375.0738657481224
 20
559.3371346902439
 30
0.0
 10
375.0146338353803
 20
559.0040990792306
 30
0.0
 10
374.8803677322061
 20
558.3439533504268
 30
0.0
 10
374.7698245315613
 20
557.9117415080004
 30
0.0
 10
374.5080484492797
 20
557.0626798400212
 30
0.0
 10
374.3568112276756
 20
556.6458313219941
 30
0.0
 10
374.1853373502831
 20
556.2367006933764
 30
0.0
  0
SPLINE
  5
159
330
1F
100
AcDbEntity
  8
1
  6
Continuous
 62
    30
370
    18
100
AcDbSpline
210
0.0
220
0.0
230
1.0
 70
     8
 71
     3
 72
    19
 73
    15
 74
     0
 42
0.000000001
 43
0.0000000001
 40
0.0
 40
0.0
 40
0.0
 40
0.0
 40
0.2500000000000094
 40
0.2500000000000094
 40
0.5000000000000189
 40
0.5000000000000189
 40
0.6250000000000266
 40
0.6250000000000266
 40
0.68750000000003
 40
0.68750000000003
 40
0.718750000000028
 40
0.718750000000028
 40
0.7500000000000261
 40
1.0
 40
1.0
 40
1.0
 40
1.0
 10
388.163894835741
 20
561.4167405981447
 30
0.0
 10
388.163894835741
 20
561.144027654303
 30
0.0
 10
388.1777968817594
 20
560.87488167541
 30
0.0
 10
388.2317386626475
 20
560.3433021656344
 30
0.0
 10
388.2717852712374
 20
560.0808704819755
 30
0.0
 10
388.3508784924882
 20
559.6921359459373
 30
0.0
 10
388.3804196486409
 20
559.5633784167372
 30
0.0
 10
388.4294755987992
 20
559.3714732786622
 30
0.0
 10
388.4466186372789
 20
559.3077101976098
 30
0.0
 10
388.4735203080501
 20
559.2123744960019
 30
0.0
 10
388.4826926764405
 20
559.1806232193152
 30
0.0
 10
388.501389041401
 20
559.1173727511806
 30
0.0
 10
388.5871100243755
 20
558.8338659379505
 30
0.0
 10
388.686862486222
 20
558.560276087065
 30
0.0
 10
388.7857158716774
 20
558.3244153930198
 30
0.0
  0
SPLINE
  5
15A
330
1F
100
AcDbEntity
  8
1
  6
Continuous
 62
    30
370
    13
100
AcDbSpline
210
0.0
220
0.0
230
1.0
 70
     8
 71
     3
 72
    19
 73
    15
 74
     0
 42
0.000000001
 43
0.0000000001
 40
0.0
 40
0.0
 40
0.0
 40
0.0
 40
0.2500000000000147
 40
0.2500000000000147
 40
0.2812500000000152
 40
0.2812500000000152
 40
0.3125000000000158
 40
0.3125000000000158
 40
0.3750000000000137
 40
0.5000000000000093
 40
0.5000000000000093
 40
0.7500000000000047
 40
0.7500000000000047
 40
1.0
 40
1.0
 40
1.0
 40
1.0
 10
386.1424523211987
 20
556.2367006933764
 30
0.0
 10
385.9708983464496
 20
556.6460224314645
 30
0.0
 10
385.818617689151
 20
557.0654017224637
 30
0.0
 10
385.6698846529679
 20
557.548859385427
 30
0.0
 10
385.6536731651115
 20
557.6027392189259
 30
0.0
 10
385.6218834684882
 20
557.7108254558278
 30
0.0
 10
385.6063120707359
 20
557.7650102773677
 30
0.0
 10
385.5606561647382
 20
557.9276811699121
 30
0.0
 10
385.4734751563078
 20
558.2538365122416
 30
0.0
 10
385.3986172522588
 20
558.5824147820576
 30
0.0
 10
385.2652598176329
 20
559.2427789169996
 30
0.0
 10
385.1981257569954
 20
559.6872898730313
 30
0.0
 10
385.107972921479
 20
560.584931843803
 30
0.0
 10
385.0849474673199
 20
561.0380615352402
 30
0.0
 10
385.0849474673199
 20
561.4956879665657
 30
0.0
  0
SPLINE
  5
15B
330
1F
100
AcDbEntity
  8
1
  6
Continuous
 62
    30
370
    18
100
AcDbSpline
210
0.0
220
0.0
230
1.0
 70
    24
 71
     3
 72
     8
 73
     4
 74
     0
 42
0.000000001
 43
0.0000000001
 40
0.0
 40
0.0
 40
0.0
 40
0.0
 40
1.0
 40
1.0
 40
1.0
 40
1.0
 10
371.663894835741
 20
576.1518101680891
 30
0.0
 10
371.663894835741
 20
576.210704882031
 30
0.0
 10
371.663894835741
 20
576.2695995959727
 30
0.0
 10
371.663894835741
 20
576.3284943099146
 30
0.0
  0
SPLINE
  5
15C
330
1F
100
AcDbEntity
  8
1
  6
Continuous
 62
    30
370
    18
100
AcDbSpline
210
0.0
220
0.0
230
1.0
 70
    24
 71
     3
 72
     8
 73
     4
 74
     0
 42
0.000000001
 43
0.0000000001
 40
0.0
 40
0.0
 40
0.0
 40
0.0
 40
1.0
 40
1.0
 40
1.0
 40
1.0
 10
371.663894835741
 20
576.3284943099146
 30
0.0
 10
371.663894835741
 20
576.3580773099146
 30
0.0
 10
371.663894835741
 20
576.3876603099146
 30
0.0
 10
371.663894835741
 20
576.4172433099147
 30
0.0
  0
SPLINE
  5
15D
330
1F
100
AcDbEntity
  8
1
  6
Continuous
 62
    30
370
    18
100
AcDbSpline
210
0.0
220
0.0
230
1.0
 70
    24
 71
     3
 72
     8
 73
     4
 74
     0
 42
0.000000001
 43
0.0000000001
 40
0.0
 40
0.0
 40
0.0
 40
0.0
 40
1.0
 40
1.0
 40
1.0
 40
1.0
 10
388.663894835741
 20
581.3816209305587
 30
0.0
 10
388.663894835741
 20
581.3815441960201
 30
0.0
 10
388.663894835741
 20
581.3814674614813
 30
0.0
 10
388.663894835741
 20
581.3813907269425
 30
0.0
  0
SPLINE
  5
15E
330
1F
100
AcDbEntity
  8
1
  6
Continuous
 62
    30
370
    18
100
AcDbSpline
210
0.0
220
0.0
230
1.0
 70
    24
 71
     3
 72
     8
 73
     4
 74
     0
 42
0.000000001
 43
0.0000000001
 40
0.0
 40
0.0
 40
0.0
 40
0.0
 40
1.0
 40
1.0
 40
1.0
 40
1.0
 10
388.663894835741
 20
581.3807968114296
 30
0.0
 10
388.663894835741
 20
581.3807159865637
 30
0.0
 10
388.663894835741
 20
581.3806351616978
 30
0.0
 10
388.663894835741
 20
581.3805543368318
 30
0.0
  0
SPLINE
  5
15F
330
1F
100
AcDbEntity
  8
1
  6
Continuous
 62
    30
370
    18
100
AcDbSpline
210
0.0
220
0.0
230
1.0
 70
     8
 71
     3
 72
    10
 73
     6
 74
     0
 42
0.000000001
 43
0.0000000001
 40
0.0
 40
0.0
 40
0.0
 40
0.0
 40
0.432736771758433
 40
0.432736771758433
 40
1.0
 40
1.0
 40
1.0
 40
1.0
 10
371.5110576505801
 20
558.2514278048682
 30
0.0
 10
371.5194026620479
 20
558.2707983984521
 30
0.0
 10
371.527691504679
 20
558.2902492917761
 30
0.0
 10
371.5467143548465
 20
558.3353857062657
 30
0.0
 10
371.5574075167176
 20
558.361129541694
 30
0.0
 10
371.5680005677787
 20
558.3870158909065
 30
0.0
  0
SPLINE
  5
160
330
1F
100
AcDbEntity
  8
1
  6
Continuous
 62
    30
370
    18
100
AcDbSpline
210
0.0
220
0.0
230
1.0
 70
    24
 71
     3
 72
     8
 73
     4
 74
     0
 42
0.000000001
 43
0.0000000001
 40
0.0
 40
0.0
 40
0.0
 40
0.0
 40
1.0
 40
1.0
 40
1.0
 40
1.0
 10
388.663894835741
 20
581.3799574762833
 30
0.0
 10
388.663894835741
 20
581.379875996965
 30
0.0
 10
388.663894835741
 20
581.3797945176467
 30
0.0
 10
388.663894835741
 20
581.3797130383284
 30
0.0
  0
SPLINE
  5
161
330
1F
100
AcDbEntity
  8
1
  6
Continuous
 62
    30
370
    18
100
AcDbSpline
210
0.0
220
0.0
230
1.0
 70
    24
 71
     3
 72
     8
 73
     4
 74
     0
 42
0.000000001
 43
0.0000000001
 40
0.0
 40
0.0
 40
0.0
 40
0.0
 40
1.0
 40
1.0
 40
1.0
 40
1.0
 10
388.663894835741
 20
581.3797130383284
 30
0.0
 10
388.663894835741
 20
581.2937147049952
 30
0.0
 10
388.663894835741
 20
581.2077163716618
 30
0.0
 10
388.663894835741
 20
581.1217180383285
 30
0.0
  0
SPLINE
  5
162
330
1F
100
AcDbEntity
  8
1
  6
Continuous
 62
    30
370
    18
100
AcDbSpline
210
0.0
220
0.0
230
1.0
 70
    24
 71
     3
 72
    12
 73
     8
 74
     0
 42
0.000000001
 43
0.0000000001
 40
0.0
 40
0.0
 40
0.0
 40
0.0
 40
0.1636577683914044
 40
0.1636577683914044
 40
0.8774598572149205
 40
0.8774598572149205
 40
1.0
 40
1.0
 40
1.0
 40
1.0
 10
388.6638948357409
 20
581.0910112103063
 30
0.0
 10
388.663894835741
 20
581.0909326007524
 30
0.0
 10
388.663894835741
 20
581.0811525871022
 30
0.0
 10
388.663894835741
 20
580.9773304334708
 30
0.0
 10
388.663894835741
 20
580.7812305259499
 30
0.0
 10
388.663894835741
 20
580.4219929500377
 30
0.0
 10
388.663894835741
 20
580.3676917268084
 30
0.0
 10
388.663894835741
 20
580.3117292103072
 30
0.0
  0
SPLINE
  5
163
330
1F
100
AcDbEntity
  8
1
  6
Continuous
 62
    30
370
    18
100
AcDbSpline
210
0.0
220
0.0
230
1.0
 70
    24
 71
     3
 72
     8
 73
     4
 74
     0
 42
0.000000001
 43
0.0000000001
 40
0.0
 40
0.0
 40
0.0
 40
0.0
 40
1.0
 40
1.0
 40
1.0
 40
1.0
 10
371.663894835741
 20
576.4479499527641
 30
0.0
 10
371.663894835741
 20
576.4708197829297
 30
0.0
 10
371.663894835741
 20
576.5551977798675
 30
0.0
 10
371.663894835741
 20
576.7018183087209
 30
0.0
  0
SPLINE
  5
164
330
1F
100
AcDbEntity
  8
1
  6
Continuous
 62
    30
370
    18
100
AcDbSpline
210
0.0
220
0.0
230
1.0
 70
    24
 71
     3
 72
     8
 73
     4
 74
     0
 42
0.000000001
 43
0.0000000001
 40
0.0
 40
0.0
 40
0.0
 40
0.0
 40
1.0
 40
1.0
 40
1.0
 40
1.0
 10
388.663894835741
 20
580.2454649352142
 30
0.0
 10
388.663894835741
 20
580.245328473171
 30
0.0
 10
388.663894835741
 20
580.2139660329005
 30
0.0
 10
388.663894835741
 20
580.1512559352144
 30
0.0
  0
SPLINE
  5
165
330
1F
100
AcDbEntity
  8
1
  6
Continuous
 62
    30
370
    18
100
AcDbSpline
210
0.0
220
0.0
230
1.0
 70
    24
 71
     3
 72
     8
 73
     4
 74
     0
 42
0.000000001
 43
0.0000000001
 40
0.0
 40
0.0
 40
0.0
 40
0.0
 40
1.0
 40
1.0
 40
1.0
 40
1.0
 10
388.663894835741
 20
580.1512559352144
 30
0.0
 10
388.663894835741
 20
580.0702015713723
 30
0.0
 10
388.663894835741
 20
579.9536706086427
 30
0.0
 10
388.663894835741
 20
579.8018329352144
 30
0.0
  0
SPLINE
  5
166
330
1F
100
AcDbEntity
  8
1
  6
Continuous
 62
    30
370
    18
100
AcDbSpline
210
0.0
220
0.0
230
1.0
 70
    24
 71
     3
 72
    10
 73
     6
 74
     0
 42
0.000000001
 43
0.0000000001
 40
0.0
 40
0.0
 40
0.0
 40
0.0
 40
0.5226711804718474
 40
0.5226711804718474
 40
1.0
 40
1.0
 40
1.0
 40
1.0
 10
371.663894835741
 20
579.8492516288061
 30
0.0
 10
371.663894835741
 20
579.9838171449579
 30
0.0
 10
371.663894835741
 20
580.0863045652427
 30
0.0
 10
371.663894835741
 20
580.2213392673759
 30
0.0
 10
371.663894835741
 20
580.253530041912
 30
0.0
 10
371.663894835741
 20
580.253575628807
 30
0.0
  0
SPLINE
  5
167
330
1F
100
AcDbEntity
  8
1
  6
Continuous
 62
    30
370
    18
100
AcDbSpline
210
0.0
220
0.0
230
1.0
 70
    24
 71
     3
 72
    10
 73
     6
 74
     0
 42
0.000000001
 43
0.0000000001
 40
0.0
 40
0.0
 40
0.0
 40
0.0
 40
0.3294987674609685
 40
0.3294987674609685
 40
1.0
 40
1.0
 40
1.0
 40
1.0
 10
371.663894835741
 20
576.7018183087209
 30
0.0
 10
371.663894835741
 20
576.8493277018903
 30
0.0
 10
371.663894835741
 20
577.1012996938442
 30
0.0
 10
371.663894835741
 20
578.1830475664844
 30
0.0
 10
371.663894835741
 20
578.9083608483861
 30
0.0
 10
371.663894835741
 20
579.6336741302878
 30
0.0
  0
SPLINE
  5
168
330
1F
100
AcDbEntity
  8
1
  6
Continuous
 62
    30
370
    18
100
AcDbSpline
210
0.0
220
0.0
230
1.0
 70
    24
 71
     3
 72
     8
 73
     4
 74
     0
 42
0.000000001
 43
0.0000000001
 40
0.0
 40
0.0
 40
0.0
 40
0.0
 40
1.0
 40
1.0
 40
1.0
 40
1.0
 10
371.663894835741
 20
579.6336741302878
 30
0.0
 10
371.663894835741
 20
579.6878947566898
 30
0.0
 10
371.663894835741
 20
579.7421153830919
 30
0.0
 10
371.663894835741
 20
579.796336009494
 30
0.0
  0
SPLINE
  5
169
330
1F
100
AcDbEntity
  8
1
  6
Continuous
 62
    30
370
    18
100
AcDbSpline
210
0.0
220
0.0
230
1.0
 70
    24
 71
     3
 72
     8
 73
     4
 74
     0
 42
0.000000001
 43
0.0000000001
 40
0.0
 40
0.0
 40
0.0
 40
0.0
 40
1.0
 40
1.0
 40
1.0
 40
1.0
 10
388.663894835741
 20
579.6320683702808
 30
0.0
 10
388.663894835741
 20
578.4719823028836
 30
0.0
 10
388.663894835741
 20
577.3118962354863
 30
0.0
 10
388.663894835741
 20
576.1518101680891
 30
0.0
  0
SPLINE
  5
16A
330
1F
100
AcDbEntity
  8
1
  6
Continuous
 62
    30
370
    18
100
AcDbSpline
210
0.0
220
0.0
230
1.0
 70
    24
 71
     3
 72
     8
 73
     4
 74
     0
 42
0.000000001
 43
0.0000000001
 40
0.0
 40
0.0
 40
0.0
 40
0.0
 40
1.0
 40
1.0
 40
1.0
 40
1.0
 10
388.663894835741
 20
579.7929245577344
 30
0.0
 10
388.663894835741
 20
579.7393058285832
 30
0.0
 10
388.663894835741
 20
579.685687099432
 30
0.0
 10
388.663894835741
 20
579.6320683702808
 30
0.0
  0
SPLINE
  5
16B
330
1F
100
AcDbEntity
  8
1
  6
Continuous
 62
    30
370
    18
100
AcDbSpline
210
0.0
220
0.0
230
1.0
 70
     8
 71
     3
 72
    42
 73
    38
 74
     0
 42
0.000000001
 43
0.0000000001
 40
0.0
 40
0.0
 40
0.0
 40
0.0
 40
0.1249999999999985
 40
0.1249999999999985
 40
0.2499999999999969
 40
0.2499999999999969
 40
0.3124999999999957
 40
0.3124999999999957
 40
0.3749999999999946
 40
0.3749999999999946
 40
0.4062499999999943
 40
0.4062499999999943
 40
0.437499999999994
 40
0.437499999999994
 40
0.4999999999999936
 40
0.4999999999999936
 40
0.5624999999999931
 40
0.5624999999999931
 40
0.6249999999999927
 40
0.6249999999999927
 40
0.6562499999999927
 40
0.6718749999999929
 40
0.6718749999999929
 40
0.6874999999999931
 40
0.6874999999999931
 40
0.7499999999999942
 40
0.7499999999999942
 40
0.8124999999999954
 40
0.8124999999999954
 40
0.8749999999999966
 40
0.8749999999999966
 40
0.9062499999999963
 40
0.9218749999999966
 40
0.9218749999999966
 40
0.9374999999999967
 40
0.9374999999999967
 40
1.0
 40
1.0
 40
1.0
 40
1.0
 10
364.1638948357409
 20
553.4167405981447
 30
0.0
 10
364.4440261217247
 20
553.4167405981447
 30
0.0
 10
364.7356252463074
 20
553.4313882671621
 30
0.0
 10
365.3410001672126
 20
553.49795593439
 30
0.0
 10
365.6547897816478
 20
553.5498410550039
 30
0.0
 10
366.1412338225729
 20
553.6631704803502
 30
0.0
 10
366.306003956877
 20
553.7068836943931
 30
0.0
 10
366.6405559047426
 20
553.8077541405097
 30
0.0
 10
366.8103388902936
 20
553.864908977989
 30
0.0
 10
367.0685306741668
 20
553.9621079858426
 30
0.0
 10
367.1551837152681
 20
553.9964227239655
 30
0.0
 10
367.3295933010025
 20
554.0691369247224
 30
0.0
 10
367.4168320451434
 20
554.1073212150628
 30
0.0
 10
367.678474623274
 20
554.2275419125182
 30
0.0
 10
367.8528090367971
 20
554.315243030147
 30
0.0
 10
368.2002620535281
 20
554.5068132921448
 30
0.0
 10
368.3733818380007
 20
554.6106814050315
 30
0.0
 10
368.7172302259834
 20
554.835755916023
 30
0.0
 10
368.8879603845202
 20
554.9569608286876
 30
0.0
 10
369.1412383196147
 20
555.152761085223
 30
0.0
 10
369.2671705208974
 20
555.2541613806761
 30
0.0
 10
369.3918251823324
 20
555.361018417367
 30
0.0
 10
369.4746182575851
 20
555.4334936889613
 30
0.0
 10
369.5157750106901
 20
555.4702768167582
 30
0.0
 10
369.7198393337292
 20
555.6565038581351
 30
0.0
 10
369.8780628949818
 20
555.8132903284308
 30
0.0
 10
370.1832320204537
 20
556.1424680045884
 30
0.0
 10
370.3301790937026
 20
556.3148578505725
 30
0.0
 10
370.6114810134462
 20
556.6753376832866
 30
0.0
 10
370.745838033171
 20
556.863425686754
 30
0.0
 10
370.9368325264833
 20
557.1575178672413
 30
0.0
 10
371.0296924789698
 20
557.3075560472382
 30
0.0
 10
371.1183674086885
 20
557.462140146015
 30
0.0
 10
371.1765265979574
 20
557.5662147546504
 30
0.0
 10
371.2051367227245
 20
557.6187810619658
 30
0.0
 10
371.3452629874833
 20
557.8832869532575
 30
0.0
 10
371.4483941932189
 20
558.1008991530312
 30
0.0
 10
371.5420737998044
 20
558.3244153930198
 30
0.0
  0
SPLINE
  5
16C
330
1F
100
AcDbEntity
  8
1
  6
Continuous
 62
    30
370
    13
100
AcDbSpline
210
0.0
220
0.0
230
1.0
 70
     8
 71
     3
 72
    46
 73
    42
 74
     0
 42
0.000000001
 43
0.0000000001
 40
0.0
 40
0.0
 40
0.0
 40
0.0
 40
0.0624999999999977
 40
0.0624999999999977
 40
0.0781249999999977
 40
0.0781249999999977
 40
0.0937499999999976
 40
0.1249999999999974
 40
0.1249999999999974
 40
0.1874999999999976
 40
0.1874999999999976
 40
0.2499999999999979
 40
0.2499999999999979
 40
0.3124999999999982
 40
0.3124999999999982
 40
0.3281249999999986
 40
0.3281249999999986
 40
0.3359374999999987
 40
0.3359374999999987
 40
0.3437499999999988
 40
0.3749999999999986
 40
0.3749999999999986
 40
0.4374999999999984
 40
0.4374999999999984
 40
0.4999999999999983
 40
0.4999999999999983
 40
0.5624999999999981
 40
0.5624999999999981
 40
0.5937499999999984
 40
0.5937499999999984
 40
0.6093749999999986
 40
0.6093749999999986
 40
0.6249999999999987
 40
0.6249999999999987
 40
0.687499999999999
 40
0.687499999999999
 40
0.7499999999999993
 40
0.7499999999999993
 40
0.8749999999999997
 40
0.8749999999999997
 40
1.0
 40
1.0
 40
1.0
 40
1.0
 10
374.1853373502831
 20
556.2367006933764
 30
0.0
 10
374.0248830193166
 20
555.9101161280539
 30
0.0
 10
373.8490113535672
 20
555.5933294775317
 30
0.0
 10
373.6110911966405
 20
555.2092666580097
 30
0.0
 10
373.5625547555308
 20
555.1329809476856
 30
0.0
 10
373.4639986470081
 20
554.9820585711284
 30
0.0
 10
373.3139149413344
 20
554.758096363477
 30
0.0
 10
373.1572931771848
 20
554.5412537093711
 30
0.0
 10
372.8358320076503
 20
554.1167364913872
 30
0.0
 10
372.6105824795425
 20
553.8459341376961
 30
0.0
 10
372.1404335759311
 20
553.3274463385906
 30
0.0
 10
371.8955291747714
 20
553.079765332651
 30
0.0
 10
371.3878770722671
 20
552.6066594837458
 30
0.0
 10
371.1251260186844
 20
552.3812373929875
 30
0.0
 10
370.7864826689404
 20
552.1130332616896
 30
0.0
 10
370.7182431848353
 20
552.0600717996658
 30
0.0
 10
370.6151339373492
 20
551.981644259023
 30
0.0
 10
370.580619916554
 20
551.9556566073604
 30
0.0
 10
370.511462679249
 20
551.9041065839541
 30
0.0
 10
370.3382405206787
 20
551.7762887135967
 30
0.0
 10
370.1634235593648
 20
551.6536933325871
 30
0.0
 10
369.7411490574442
 20
551.3690679379195
 30
0.0
 10
369.4560223376338
 20
551.1921093302383
 30
0.0
 10
368.8801761017175
 20
550.8618852844285
 30
0.0
 10
368.5894539457221
 20
550.7086237222646
 30
0.0
 10
368.0038128243855
 20
550.4242856462205
 30
0.0
 10
367.7088919457152
 20
550.293211789554
 30
0.0
 10
367.2642917519001
 20
550.1123149731518
 30
0.0
 10
367.1157208131959
 20
550.0546369435598
 30
0.0
 10
366.8924164469335
 20
549.9719504810182
 30
0.0
 10
366.8178526143228
 20
549.9450078115027
 30
0.0
 10
366.6688498491184
 20
549.8924738898096
 30
0.0
 10
366.5944909287504
 20
549.8669097264413
 30
0.0
 10
366.2234365850882
 20
549.742507085731
 30
0.0
 10
365.9289659899389
 20
549.6539071030949
 30
0.0
 10
365.3454151706854
 20
549.4963728582431
 30
0.0
 10
365.056333752572
 20
549.427442077133
 30
0.0
 10
364.1980150560022
 20
549.2474120091179
 30
0.0
 10
363.6377141690597
 20
549.1629874764308
 30
0.0
 10
362.5449070137024
 20
549.053532939618
 30
0.0
 10
362.0123814730429
 20
549.0285533384035
 30
0.0
 10
361.4956516476416
 20
549.0285533384035
 30
0.0
  0
SPLINE
  5
16D
330
1F
100
AcDbEntity
  8
1
  6
Continuous
 62
    30
370
    18
100
AcDbSpline
210
0.0
220
0.0
230
1.0
 70
     8
 71
     3
 72
    10
 73
     6
 74
     0
 42
0.000000001
 43
0.0000000001
 40
0.0
 40
0.0
 40
0.0
 40
0.0
 40
0.6526917555215421
 40
0.6526917555215421
 40
1.0
 40
1.0
 40
1.0
 40
1.0
 10
388.7076104885275
 20
558.5177986739797
 30
0.0
 10
388.7349700294698
 20
558.4474286111971
 30
0.0
 10
388.7630699214172
 20
558.3781079573722
 30
0.0
 10
388.8071893060593
 20
558.2734238109538
 30
0.0
 10
388.8227096782633
 20
558.2373478155903
 30
0.0
 10
388.8384223206265
 20
558.2015470859989
 30
0.0
  0
SPLINE
  5
16E
330
1F
100
AcDbEntity
  8
1
  6
Continuous
 62
    30
370
    18
100
AcDbSpline
210
0.0
220
0.0
230
1.0
 70
     8
 71
     3
 72
    42
 73
    38
 74
     0
 42
0.000000001
 43
0.0000000001
 40
0.0
 40
0.0
 40
0.0
 40
0.0
 40
0.0625000000000017
 40
0.0625000000000017
 40
0.1250000000000034
 40
0.1250000000000034
 40
0.1875000000000051
 40
0.1875000000000051
 40
0.2187500000000064
 40
0.2343750000000065
 40
0.2343750000000065
 40
0.2500000000000066
 40
0.2500000000000066
 40
0.3125000000000085
 40
0.3125000000000085
 40
0.3750000000000105
 40
0.3750000000000105
 40
0.4375000000000125
 40
0.4375000000000125
 40
0.468750000000013
 40
0.4843750000000127
 40
0.4843750000000127
 40
0.5000000000000124
 40
0.5000000000000124
 40
0.5625000000000113
 40
0.5625000000000113
 40
0.6250000000000101
 40
0.6250000000000101
 40
0.7500000000000077
 40
0.7500000000000077
 40
0.7812500000000071
 40
0.7812500000000071
 40
0.8125000000000066
 40
0.8125000000000066
 40
0.8750000000000044
 40
0.8750000000000044
 40
1.0
 40
1.0
 40
1.0
 40
1.0
 10
388.7857158716774
 20
558.3244153930198
 30
0.0
 10
388.8791326363885
 20
558.1015262844811
 30
0.0
 10
388.9814475550421
 20
557.8856935390608
 30
0.0
 10
389.202393818624
 20
557.4678995197821
 30
0.0
 10
389.3210288258234
 20
557.2659408927972
 30
0.0
 10
389.5733891119357
 20
556.8759050221645
 30
0.0
 10
389.7071168444089
 20
556.6878294902995
 30
0.0
 10
389.9182216973485
 20
556.4162693581337
 30
0.0
 10
390.0264039147882
 20
556.2831294646007
 30
0.0
 10
390.1383900028678
 20
556.1539912453209
 30
0.0
 10
390.213877592812
 20
556.0687938846411
 30
0.0
 10
390.2520726796174
 20
556.0266049670498
 30
0.0
 10
390.4442116755484
 20
555.8188411900894
 30
0.0
 10
390.6021642092877
 20
555.6621786615755
 30
0.0
 10
390.924870003378
 20
555.3669100675493
 30
0.0
 10
391.0896251853031
 20
555.2283061055749
 30
0.0
 10
391.4244656853335
 20
554.9682721534324
 30
0.0
 10
391.5945523494719
 20
554.8468435195224
 30
0.0
 10
391.852695461424
 20
554.6769950873693
 30
0.0
 10
391.9825219685692
 20
554.5951455103487
 30
0.0
 10
392.1133095488041
 20
554.5178053713507
 30
0.0
 10
392.2006966279836
 20
554.4672364146596
 30
0.0
 10
392.2445306540258
 20
554.4424241153648
 30
0.0
 10
392.4634977888009
 20
554.3211675029547
 30
0.0
 10
392.638027116883
 20
554.233095975633
 30
0.0
 10
392.9849267990147
 20
554.0729911841942
 30
0.0
 10
393.1572988543341
 20
554.000959991008
 30
0.0
 10
393.670135381358
 20
553.8065599552124
 30
0.0
 10
394.0062763086053
 20
553.70581207398
 30
0.0
 10
394.416667689551
 20
553.609416740032
 30
0.0
 10
394.4983408795549
 20
553.5916057280624
 30
0.0
 10
394.6600649843041
 20
553.5589227398668
 30
0.0
 10
394.7401587508514
 20
553.544037721852
 30
0.0
 10
394.9781280580143
 20
553.5034696423355
 30
0.0
 10
395.1336909555985
 20
553.4818675255358
 30
0.0
 10
395.5911044559891
 20
553.4313768598321
 30
0.0
 10
395.8836781477826
 20
553.4167405981447
 30
0.0
 10
396.163894835741
 20
553.4167405981447
 30
0.0
  0
SPLINE
  5
16F
330
1F
100
AcDbEntity
  8
1
  6
Continuous
 62
    30
370
    13
100
AcDbSpline
210
0.0
220
0.0
230
1.0
 70
     8
 71
     3
 72
    46
 73
    42
 74
     0
 42
0.000000001
 43
0.0000000001
 40
0.0
 40
0.0
 40
0.0
 40
0.0
 40
0.1250000000000037
 40
0.1250000000000037
 40
0.1875000000000053
 40
0.1875000000000053
 40
0.2187500000000059
 40
0.2187500000000059
 40
0.2343750000000056
 40
0.2343750000000056
 40
0.2500000000000054
 40
0.3125000000000047
 40
0.3125000000000047
 40
0.375000000000004
 40
0.375000000000004
 40
0.4375000000000033
 40
0.4375000000000033
 40
0.4687500000000033
 40
0.4843750000000033
 40
0.4843750000000033
 40
0.5000000000000032
 40
0.5000000000000032
 40
0.5625000000000022
 40
0.5625000000000022
 40
0.6250000000000011
 40
0.6250000000000011
 40
0.6875000000000001
 40
0.6875000000000001
 40
0.749999999999999
 40
0.749999999999999
 40
0.7578124999999993
 40
0.7578124999999993
 40
0.7656249999999996
 40
0.78125
 40
0.8125000000000001
 40
0.8125000000000001
 40
0.8750000000000001
 40
0.8750000000000001
 40
0.9375
 40
0.9375
 40
1.0
 40
1.0
 40
1.0
 40
1.0
 10
398.8321380238403
 20
549.0285533384035
 30
0.0
 10
398.3157306117345
 20
549.0285533384035
 30
0.0
 10
397.7815239266994
 20
549.053474689847
 30
0.0
 10
396.9555744875817
 20
549.1364940040006
 30
0.0
 10
396.6761497234655
 20
549.1717890544606
 30
0.0
 10
396.2511081450492
 20
549.2373953495196
 30
0.0
 10
396.1084436372276
 20
549.2613764269736
 30
0.0
 10
395.893004596822
 20
549.3006879868225
 30
0.0
 10
395.8210163482367
 20
549.3143371688427
 30
0.0
 10
395.6768661284306
 20
549.3427147091253
 30
0.0
 10
395.3159297008543
 20
549.4163812957856
 30
0.0
 10
394.9523351238711
 20
549.5038793773099
 30
0.0
 10
394.3679907545521
 20
549.6628997785356
 30
0.0
 10
394.0745209407764
 20
549.751919642492
 30
0.0
 10
393.4858685575697
 20
549.950511668353
 30
0.0
 10
393.1906845620564
 20
550.0600810379447
 30
0.0
 10
392.7473667131313
 20
550.2412090244713
 30
0.0
 10
392.5255738115175
 20
550.3359702167257
 30
0.0
 10
392.3037356793376
 20
550.4373218629343
 30
0.0
 10
392.1558521850616
 20
550.5063900717203
 30
0.0
 10
392.0818519564866
 20
550.541705478575
 30
0.0
 10
391.7129973505666
 20
550.7215941757864
 30
0.0
 10
391.4212404456275
 20
550.8762275604943
 30
0.0
 10
390.8457361868441
 20
551.2078932477688
 30
0.0
 10
390.561986738027
 20
551.3849231606623
 30
0.0
 10
390.0040232156365
 20
551.7625942322311
 30
0.0
 10
389.7298062457005
 20
551.9632318517963
 30
0.0
 10
389.1926799723364
 20
552.3896792143588
 30
0.0
 10
388.9297663910151
 20
552.615483468039
 30
0.0
 10
388.6415437774127
 20
552.8848207522603
 30
0.0
 10
388.6096165946335
 20
552.9149678022455
 30
0.0
 10
388.5461254482969
 20
552.9755496683051
 30
0.0
 10
388.4513796057022
 20
553.0669040036189
 30
0.0
 10
388.2337678461849
 20
553.2834370611993
 30
0.0
 10
388.0532680204122
 20
553.4748284659184
 30
0.0
 10
387.700565298359
 20
553.865383729218
 30
0.0
 10
387.4764803918037
 20
554.1361057893096
 30
0.0
 10
387.052080177313
 20
554.6987719468796
 30
0.0
 10
386.8517595932993
 20
554.9907122860727
 30
0.0
 10
386.4770057032302
 20
555.5967363595034
 30
0.0
 10
386.3025639155524
 20
555.9108137252273
 30
0.0
 10
386.1424523211987
 20
556.2367006933764
 30
0.0
  0
SPLINE
  5
170
330
1F
100
AcDbEntity
  8
1
  6
Continuous
 62
    30
370
    13
100
AcDbSpline
210
0.0
220
0.0
230
1.0
 70
     8
 71
     3
 72
    19
 73
    15
 74
     0
 42
0.000000001
 43
0.0000000001
 40
0.0
 40
0.0
 40
0.0
 40
0.0
 40
0.2499999999999833
 40
0.2499999999999833
 40
0.2812499999999827
 40
0.2812499999999827
 40
0.3124999999999821
 40
0.3124999999999821
 40
0.3749999999999847
 40
0.4999999999999863
 40
0.4999999999999863
 40
0.7499999999999931
 40
0.7499999999999931
 40
1.0
 40
1.0
 40
1.0
 40
1.0
 10
838.5978286007496
 20
579.4956879665657
 30
0.0
 10
838.6076209901798
 20
579.0381622137236
 30
0.0
 10
838.6016204477141
 20
578.5822668862984
 30
0.0
 10
838.577176721556
 20
578.0712082543266
 30
0.0
 10
838.5742141882753
 20
578.0144493571013
 30
0.0
 10
838.5677948330401
 20
577.9009824315743
 30
0.0
 10
838.5643390687832
 20
577.8442988240746
 30
0.0
 10
838.553257790859
 20
577.6747290012011
 30
0.0
 10
838.5282177199165
 20
577.3371346902439
 30
0.0
 10
838.4946733072098
 20
577.0040990792306
 30
0.0
 10
838.4164707725554
 20
576.3439533504268
 30
0.0
 10
838.3495523003146
 20
575.9117415080004
 30
0.0
 10
838.186447142351
 20
575.0626798400212
 30
0.0
 10
838.0902594012454
 20
574.6458313219941
 30
0.0
 10
837.9790301321318
 20
574.2367006933764
 30
0.0
  0
SPLINE
  5
171
330
1F
100
AcDbEntity
  8
1
  6
Continuous
 62
    30
370
    13
100
AcDbSpline
210
0.0
220
0.0
230
1.0
 70
     8
 71
     3
 72
    19
 73
    15
 74
     0
 42
0.000000001
 43
0.0000000001
 40
0.0
 40
0.0
 40
0.0
 40
0.0
 40
0.2500000000000165
 40
0.2500000000000165
 40
0.2812500000000171
 40
0.2812500000000171
 40
0.3125000000000177
 40
0.3125000000000177
 40
0.3750000000000152
 40
0.5000000000000105
 40
0.5000000000000105
 40
0.7500000000000052
 40
0.7500000000000052
 40
1.0
 40
1.0
 40
1.0
 40
1.0
 10
785.1167911752789
 20
574.2367006933764
 30
0.0
 10
785.0055099497357
 20
574.6460224314645
 30
0.0
 10
784.908649494737
 20
575.0654017224637
 30
0.0
 10
784.8160061778398
 20
575.548859385427
 30
0.0
 10
784.8059399177176
 20
575.6027392189259
 30
0.0
 10
784.7862638755906
 20
575.7108254558278
 30
0.0
 10
784.7766583489597
 20
575.7650102773677
 30
0.0
 10
784.7485911054702
 20
575.9276811699121
 30
0.0
 10
784.6953907918656
 20
576.2538365122416
 30
0.0
 10
784.6508903326265
 20
576.5824147820576
 30
0.0
 10
784.5733241064333
 20
577.2427789169996
 30
0.0
 10
784.5368222832519
 20
577.6872898730313
 30
0.0
 10
784.4942617345096
 20
578.584931843803
 30
0.0
 10
784.4881981624168
 20
579.0380615352402
 30
0.0
 10
784.4979927066611
 20
579.4956879665657
 30
0.0
  0
SPLINE
  5
172
330
1F
100
AcDbEntity
  8
1
  6
Continuous
 62
    30
370
    13
100
AcDbSpline
210
0.0
220
0.0
230
1.0
 70
     8
 71
     3
 72
    19
 73
    15
 74
     0
 42
0.000000001
 43
0.0000000001
 40
0.0
 40
0.0
 40
0.0
 40
0.0
 40
0.2500000000000075
 40
0.2500000000000075
 40
0.500000000000015
 40
0.500000000000015
 40
0.6250000000000221
 40
0.6250000000000221
 40
0.6875000000000254
 40
0.6875000000000254
 40
0.7187500000000242
 40
0.7187500000000242
 40
0.7500000000000231
 40
1.0
 40
1.0
 40
1.0
 40
1.0
 10
788.186617881258
 20
579.4167405981447
 30
0.0
 10
788.178045000892
 20
579.144027654303
 30
0.0
 10
788.1835614837579
 20
578.87488167541
 30
0.0
 10
788.2211383557968
 20
578.3433021656344
 30
0.0
 10
788.253206453939
 20
578.0808704819755
 30
0.0
 10
788.3208727460584
 20
577.6921359459373
 30
0.0
 10
788.3466971721899
 20
577.5633784167372
 30
0.0
 10
788.3903653953871
 20
577.3714732786622
 30
0.0
 10
788.4057438932108
 20
577.3077101976098
 30
0.0
 10
788.430053244886
 20
577.2123744960019
 30
0.0
 10
788.4383699570595
 20
577.1806232193152
 30
0.0
 10
788.4553785019067
 20
577.1173727511806
 30
0.0
 10
788.5336104180318
 20
576.8338659379506
 30
0.0
 10
788.6268543380323
 20
576.560276087065
 30
0.0
 10
788.7210347405188
 20
576.3244153930198
 30
0.0
  0
SPLINE
  5
173
330
1F
100
AcDbEntity
  8
1
  6
Continuous
 62
    30
370
    13
100
AcDbSpline
210
0.0
220
0.0
230
1.0
 70
     8
 71
     3
 72
    18
 73
    14
 74
     0
 42
0.000000001
 43
0.0000000001
 40
0.0
 40
0.0
 40
0.0
 40
0.0
 40
0.2500000000000013
 40
0.2500000000000013
 40
0.5000000000000026
 40
0.5000000000000026
 40
0.6250000000000032
 40
0.6250000000000032
 40
0.6875000000000037
 40
0.6875000000000037
 40
0.7500000000000041
 40
0.7500000000000041
 40
1.0
 40
1.0
 40
1.0
 40
1.0
 10
834.3747865668918
 20
576.3244153930198
 30
0.0
 10
834.4688582830235
 20
576.5600038983887
 30
0.0
 10
834.5509914178588
 20
576.801250944439
 30
0.0
 10
834.6912383157074
 20
577.2953273826616
 30
0.0
 10
834.7493578591667
 20
577.5481537528836
 30
0.0
 10
834.8177389764671
 20
577.9365698569317
 30
0.0
 10
834.8373920607143
 20
578.0675746334151
 30
0.0
 10
834.8619826904005
 20
578.2664777333807
 30
0.0
 10
834.8693641265788
 20
578.3331783608922
 30
0.0
 10
834.8824584721375
 20
578.4673985202346
 30
0.0
 10
834.8881730955435
 20
578.5349807829922
 30
0.0
 10
834.9123336920447
 20
578.872757570748
 30
0.0
 10
834.917772297801
 20
579.1441551761116
 30
0.0
 10
834.9092034261527
 20
579.4167405981447
 30
0.0
  0
SPLINE
  5
174
330
1F
100
AcDbEntity
  8
1
  6
Continuous
 62
    30
370
    18
100
AcDbSpline
210
0.0
220
0.0
230
1.0
 70
     8
 71
     3
 72
    69
 73
    65
 74
     0
 42
0.000000001
 43
0.0000000001
 40
0.0
 40
0.0
 40
0.0
 40
0.0
 40
0.0312500000000011
 40
0.0312500000000011
 40
0.0625000000000021
 40
0.0625000000000021
 40
0.0937500000000032
 40
0.0937500000000032
 40
0.1093750000000037
 40
0.1093750000000037
 40
0.1250000000000043
 40
0.132812500000004
 40
0.132812500000004
 40
0.1406250000000037
 40
0.1406250000000037
 40
0.1562500000000032
 40
0.1562500000000032
 40
0.1875000000000013
 40
0.1875000000000013
 40
0.2187499999999994
 40
0.2187499999999994
 40
0.2499999999999976
 40
0.2499999999999976
 40
0.2656249999999962
 40
0.273437499999996
 40
0.273437499999996
 40
0.2812499999999958
 40
0.2812499999999958
 40
0.3124999999999958
 40
0.3124999999999958
 40
0.3749999999999959
 40
0.3749999999999959
 40
0.4374999999999961
 40
0.4374999999999961
 40
0.4687499999999959
 40
0.4687499999999959
 40
0.4843749999999962
 40
0.4843749999999962
 40
0.4999999999999964
 40
0.4999999999999964
 40
0.5624999999999967
 40
0.5624999999999967
 40
0.6249999999999969
 40
0.6249999999999969
 40
0.6874999999999971
 40
0.6874999999999971
 40
0.7499999999999973
 40
0.7499999999999973
 40
0.8124999999999976
 40
0.8124999999999976
 40
0.8281249999999977
 40
0.8281249999999977
 40
0.8437499999999977
 40
0.8749999999999981
 40
0.8749999999999981
 40
0.9374999999999991
 40
0.9374999999999991
 40
0.9687499999999994
 40
0.9843749999999997
 40
0.9921874999999999
 40
0.9960937499999997
 40
0.9980468749999998
 40
0.9980468749999998
 40
1.0
 40
1.0
 40
1.0
 40
1.0
 10
801.6542613006778
 20
579.9621951435992
 30
0.0
 10
801.6835171505376
 20
579.7632002485735
 30
0.0
 10
801.7184580598978
 20
579.5671949031507
 30
0.0
 10
801.7990967317278
 20
579.1807654895091
 30
0.0
 10
801.8447957698098
 20
578.990342315714
 30
0.0
 10
801.9465098445587
 20
578.6147859987312
 30
0.0
 10
802.0025257029196
 20
578.4296534359046
 30
0.0
 10
802.0940592329596
 20
578.1557654053779
 30
0.0
 10
802.1258231593076
 20
578.0651047924517
 30
0.0
 10
802.1918290615656
 20
577.8850366797349
 30
0.0
 10
802.2429459107291
 20
577.751595635871
 30
0.0
 10
802.2963953051305
 20
577.6204688988859
 30
0.0
 10
802.3325382218499
 20
577.5335555649912
 30
0.0
 10
802.3508589677965
 20
577.4903661247836
 30
0.0
 10
802.4064077609384
 20
577.3619126443481
 30
0.0
 10
802.444273964381
 20
577.2776366141422
 30
0.0
 10
802.5602433589582
 20
577.0286467471296
 30
0.0
 10
802.6407127678591
 20
576.8677626692958
 30
0.0
 10
802.8074000177326
 20
576.5551721066777
 30
0.0
 10
802.8936192457995
 20
576.4034682851049
 30
0.0
 10
803.071375286578
 20
576.1084445224266
 30
0.0
 10
803.1629130080177
 20
575.9651263168494
 30
0.0
 10
803.3039566259603
 20
575.7559727230258
 30
0.0
 10
803.3754136994049
 20
575.6528536757091
 30
0.0
 10
803.448234478114
 20
575.5518484093287
 30
0.0
 10
803.4970808490563
 20
575.4849740828096
 30
0.0
 10
803.521638687033
 20
575.4517892185481
 30
0.0
 10
803.6448000935935
 20
575.2874804651685
 30
0.0
 10
803.7447833681481
 20
575.1608285381964
 30
0.0
 10
804.048725707973
 20
574.7938145306622
 30
0.0
 10
804.2566591313496
 20
574.5663246231245
 30
0.0
 10
804.6817522845768
 20
574.1403117320654
 30
0.0
 10
804.8989201668785
 20
573.941821668654
 30
0.0
 10
805.2309423202291
 20
573.6632392633959
 30
0.0
 10
805.342664571233
 20
573.5735823619316
 30
0.0
 10
805.511761498116
 20
573.443663658402
 30
0.0
 10
805.5683795425208
 20
573.4011190555923
 30
0.0
 10
805.682112244695
 20
573.3175190276537
 30
0.0
 10
805.7392515347772
 20
573.2764463416725
 30
0.0
 10
806.0259037162488
 20
573.074917005401
 30
0.0
 10
806.256797302768
 20
572.9269418443963
 30
0.0
 10
806.7215283225307
 20
572.6544009011835
 30
0.0
 10
806.9553666001522
 20
572.5298484435917
 30
0.0
 10
807.4258690299646
 20
572.3020773623125
 30
0.0
 10
807.6625336333256
 20
572.1988662349945
 30
0.0
 10
808.1386311341158
 20
572.0123705755103
 30
0.0
 10
808.3780642476243
 20
571.9290903512548
 30
0.0
 10
808.8596920850243
 20
571.7815491432511
 30
0.0
 10
809.1018868601526
 20
571.7172905314945
 30
0.0
 10
809.4063816020132
 20
571.6485395830965
 30
0.0
 10
809.4673896081596
 20
571.6353648033834
 30
0.0
 10
809.58940609174
 20
571.6102050151743
 30
0.0
 10
809.7724748689565
 20
571.5742392668034
 30
0.0
 10
809.9556823037119
 20
571.5435408648575
 30
0.0
 10
810.3222994881387
 20
571.489055387661
 30
0.0
 10
810.5669804868388
 20
571.4619363716051
 30
0.0
 10
810.9344784108973
 20
571.434817502932
 30
0.0
 10
811.1183465448242
 20
571.4246519810811
 30
0.0
 10
811.3330847079092
 20
571.4187185812309
 30
0.0
 10
811.4405123282635
 20
571.4172348573886
 30
0.0
 10
811.4942410530217
 20
571.4168639956922
 30
0.0
 10
811.5172708756724
 20
571.4167845912341
 30
0.0
 10
811.5326248111285
 20
571.4167493341904
 30
0.0
 10
811.5402724698587
 20
571.4167405981447
 30
0.0
 10
811.5479106537053
 20
571.4167405981447
 30
0.0
  0
SPLINE
  5
175
330
1F
100
AcDbEntity
  8
1
  6
Continuous
 62
    30
370
    13
100
AcDbSpline
210
0.0
220
0.0
230
1.0
 70
     8
 71
     3
 72
    71
 73
    67
 74
     0
 42
0.000000001
 43
0.0000000001
 40
0.0
 40
0.0
 40
0.0
 40
0.0
 40
0.0019531250000001
 40
0.0019531250000001
 40
0.0039062500000002
 40
0.0078125000000004
 40
0.0156250000000008
 40
0.0312500000000011
 40
0.0625000000000014
 40
0.0625000000000014
 40
0.125000000000002
 40
0.125000000000002
 40
0.1562500000000022
 40
0.1718750000000024
 40
0.1718750000000024
 40
0.1875000000000027
 40
0.1875000000000027
 40
0.2500000000000033
 40
0.2500000000000033
 40
0.3125000000000041
 40
0.3125000000000041
 40
0.3750000000000049
 40
0.3750000000000049
 40
0.4375000000000056
 40
0.4375000000000056
 40
0.5000000000000063
 40
0.5000000000000063
 40
0.5156250000000066
 40
0.5156250000000066
 40
0.5312500000000069
 40
0.5312500000000069
 40
0.5625000000000072
 40
0.5625000000000072
 40
0.6250000000000079
 40
0.6250000000000079
 40
0.6875000000000087
 40
0.6875000000000087
 40
0.7187500000000089
 40
0.7265625000000089
 40
0.7265625000000089
 40
0.7343750000000091
 40
0.7343750000000091
 40
0.7500000000000092
 40
0.7500000000000092
 40
0.7812500000000087
 40
0.7812500000000087
 40
0.8125000000000081
 40
0.8125000000000081
 40
0.8437500000000075
 40
0.8437500000000075
 40
0.8593750000000069
 40
0.8671875000000064
 40
0.8671875000000064
 40
0.8750000000000061
 40
0.8750000000000061
 40
0.8828125000000058
 40
0.8828125000000058
 40
0.8906250000000053
 40
0.8906250000000053
 40
0.9062500000000046
 40
0.9062500000000046
 40
0.937500000000003
 40
0.937500000000003
 40
0.9687500000000016
 40
0.9687500000000016
 40
1.0
 40
1.0
 40
1.0
 40
1.0
 10
811.5479106537053
 20
571.4167405981447
 30
0.0
 10
811.5375196258916
 20
571.4167405981447
 30
0.0
 10
811.527122939792
 20
571.4167485891098
 30
0.0
 10
811.5062070564849
 20
571.4167809496971
 30
0.0
 10
811.4748345009307
 20
571.4168538587709
 30
0.0
 10
811.4016407345127
 20
571.4171945199454
 30
0.0
 10
811.2552884753981
 20
571.4185577402088
 30
0.0
 10
810.9627236481306
 20
571.4240102356746
 30
0.0
 10
810.712188570101
 20
571.4333537256649
 30
0.0
 10
810.2114200477258
 20
571.4582819483463
 30
0.0
 10
809.8779762226786
 20
571.4832132897525
 30
0.0
 10
809.3783742588276
 20
571.5332988595443
 30
0.0
 10
809.1287143474436
 20
571.56151714712
 30
0.0
 10
808.8792597573183
 20
571.594571937676
 30
0.0
 10
808.7130016879084
 20
571.617693754394
 30
0.0
 10
808.6298695193112
 20
571.629801329432
 30
0.0
 10
808.2148290859815
 20
571.6930005325416
 30
0.0
 10
807.8845282269984
 20
571.7520929146641
 30
0.0
 10
807.2274159466197
 20
571.8878283510666
 30
0.0
 10
806.9006042875511
 20
571.9644693441567
 30
0.0
 10
806.2505593081459
 20
572.1361359360172
 30
0.0
 10
805.9273255038206
 20
572.2311578943063
 30
0.0
 10
805.2845982083923
 20
572.4408548348715
 30
0.0
 10
804.9651038525993
 20
572.5555236100497
 30
0.0
 10
804.3301101021787
 20
572.806360204172
 30
0.0
 10
804.0146091817804
 20
572.9425172236322
 30
0.0
 10
803.6229685425924
 20
573.1278186383091
 30
0.0
 10
803.5447681710272
 20
573.1656428864757
 30
0.0
 10
803.3891059972636
 20
573.2426282393556
 30
0.0
 10
803.3115878282957
 20
573.2818155346565
 30
0.0
 10
803.0799910518762
 20
573.4015098219071
 30
0.0
 10
802.9268694019256
 20
573.48414732923
 30
0.0
 10
802.4715105773439
 20
573.7410346493366
 30
0.0
 10
802.173262408963
 20
573.9242169824894
 30
0.0
 10
801.588707323686
 20
574.3176831283919
 30
0.0
 10
801.3023891425923
 20
574.5279381894385
 30
0.0
 10
800.8833341149058
 20
574.8673211178015
 30
0.0
 10
800.7109069221129
 20
575.013750116669
 30
0.0
 10
800.5414755274002
 20
575.167135497053
 30
0.0
 10
800.4739497068379
 20
575.2290639284615
 30
0.0
 10
800.4403013511287
 20
575.2603235760862
 30
0.0
 10
800.339999773391
 20
575.3547363473535
 30
0.0
 10
800.2739048398323
 20
575.4185999604734
 30
0.0
 10
800.078018168983
 20
575.6130587415158
 30
0.0
 10
799.9506206873464
 20
575.7465168801933
 30
0.0
 10
799.7027213506694
 20
576.0217246007948
 30
0.0
 10
799.5822181069287
 20
576.1634723609594
 30
0.0
 10
799.3487538064487
 20
576.4560905951827
 30
0.0
 10
799.2357906217047
 20
576.6069582685943
 30
0.0
 10
799.0726310398347
 20
576.8409110956435
 30
0.0
 10
798.9926250824495
 20
576.9598036239471
 30
0.0
 10
798.915125725834
 20
577.0817584729314
 30
0.0
 10
798.8640350157793
 20
577.1637661251975
 30
0.0
 10
798.8387891135075
 20
577.205104285349
 30
0.0
 10
798.7890153412131
 20
577.2882961575856
 30
0.0
 10
798.7644727132804
 20
577.3301733852835
 30
0.0
 10
798.7160920164251
 20
577.4145043736303
 30
0.0
 10
798.6922423560393
 20
577.4569803774073
 30
0.0
 10
798.6219726079632
 20
577.5849306804827
 30
0.0
 10
798.576772512879
 20
577.6710259678899
 30
0.0
 10
798.446233019062
 20
577.9317608422758
 30
0.0
 10
798.3659469967314
 20
578.1088456137103
 30
0.0
 10
798.2196651435248
 20
578.469961076593
 30
0.0
 10
798.1536669585506
 20
578.653990502082
 30
0.0
 10
798.0370317970762
 20
579.0295536243053
 30
0.0
 10
797.9863911824154
 20
579.2210853545347
 30
0.0
 10
797.9441427932925
 20
579.4167405981447
 30
0.0
  0
SPLINE
  5
176
330
1F
100
AcDbEntity
  8
1
  6
Continuous
 62
    30
370
    18
100
AcDbSpline
210
0.0
220
0.0
230
1.0
 70
     8
 71
     3
 72
    69
 73
    65
 74
     0
 42
0.000000001
 43
0.0000000001
 40
0.0
 40
0.0
 40
0.0
 40
0.0
 40
0.001953125
 40
0.001953125
 40
0.0039062500000001
 40
0.0078124999999998
 40
0.0156249999999998
 40
0.0312499999999998
 40
0.0624999999999998
 40
0.0624999999999998
 40
0.1249999999999999
 40
0.1249999999999999
 40
0.15625
 40
0.1718750000000001
 40
0.1718750000000001
 40
0.1875000000000001
 40
0.1875000000000001
 40
0.2499999999999998
 40
0.2499999999999998
 40
0.3124999999999994
 40
0.3124999999999994
 40
0.3749999999999991
 40
0.3749999999999991
 40
0.4374999999999987
 40
0.4374999999999987
 40
0.4999999999999983
 40
0.4999999999999983
 40
0.5156249999999984
 40
0.5156249999999984
 40
0.5312499999999987
 40
0.5312499999999987
 40
0.5624999999999989
 40
0.5624999999999989
 40
0.6249999999999996
 40
0.6249999999999996
 40
0.6875000000000004
 40
0.6875000000000004
 40
0.7187500000000008
 40
0.7187500000000008
 40
0.7265625000000007
 40
0.7265625000000007
 40
0.7343750000000004
 40
0.7499999999999993
 40
0.7499999999999993
 40
0.7812499999999979
 40
0.7812499999999979
 40
0.8124999999999963
 40
0.8124999999999963
 40
0.8437499999999948
 40
0.8437499999999948
 40
0.8593749999999944
 40
0.8593749999999944
 40
0.8671874999999943
 40
0.8671874999999943
 40
0.8749999999999942
 40
0.890624999999995
 40
0.890624999999995
 40
0.9062499999999957
 40
0.9062499999999957
 40
0.9374999999999971
 40
0.9374999999999971
 40
0.9687499999999986
 40
0.9687499999999986
 40
1.0
 40
1.0
 40
1.0
 40
1.0
 10
811.5479106537053
 20
571.4167405981447
 30
0.0
 10
811.5555488375519
 20
571.4167405981447
 30
0.0
 10
811.5631964962821
 20
571.4167493341904
 30
0.0
 10
811.5785504317382
 20
571.4167845912341
 30
0.0
 10
811.6015802543889
 20
571.4168639956922
 30
0.0
 10
811.6553089791471
 20
571.4172348573886
 30
0.0
 10
811.7627365995015
 20
571.4187185812308
 30
0.0
 10
811.9774747625864
 20
571.4246519810811
 30
0.0
 10
812.1613428965132
 20
571.4348175029321
 30
0.0
 10
812.5288408205719
 20
571.4619363716051
 30
0.0
 10
812.7735218192719
 20
571.489055387661
 30
0.0
 10
813.1401390036988
 20
571.5435408648575
 30
0.0
 10
813.3233464384541
 20
571.5742392668034
 30
0.0
 10
813.5064152156707
 20
571.6102050151744
 30
0.0
 10
813.6284316992511
 20
571.6353648033834
 30
0.0
 10
813.6894397053975
 20
571.6485395830965
 30
0.0
 10
813.993934447258
 20
571.7172905314945
 30
0.0
 10
814.2361292223864
 20
571.7815491432511
 30
0.0
 10
814.7177570597864
 20
571.9290903512548
 30
0.0
 10
814.9571901732947
 20
572.0123705755103
 30
0.0
 10
815.4332876740851
 20
572.1988662349945
 30
0.0
 10
815.669952277446
 20
572.3020773623125
 30
0.0
 10
816.1404547072585
 20
572.5298484435916
 30
0.0
 10
816.3742929848798
 20
572.6544009011835
 30
0.0
 10
816.8390240046427
 20
572.9269418443963
 30
0.0
 10
817.0699175911618
 20
573.074917005401
 30
0.0
 10
817.3565697726335
 20
573.2764463416725
 30
0.0
 10
817.4137090627157
 20
573.3175190276537
 30
0.0
 10
817.5274417648899
 20
573.4011190555923
 30
0.0
 10
817.5840598092947
 20
573.443663658402
 30
0.0
 10
817.7531567361777
 20
573.5735823619316
 30
0.0
 10
817.8648789871816
 20
573.6632392633959
 30
0.0
 10
818.1969011405322
 20
573.941821668654
 30
0.0
 10
818.4140690228339
 20
574.1403117320652
 30
0.0
 10
818.8391621760611
 20
574.5663246231245
 30
0.0
 10
819.0470955994376
 20
574.7938145306623
 30
0.0
 10
819.3510379392626
 20
575.1608285381964
 30
0.0
 10
819.4510212138172
 20
575.2874804651685
 30
0.0
 10
819.5741826203775
 20
575.4517892185481
 30
0.0
 10
819.5987404583544
 20
575.4849740828097
 30
0.0
 10
819.6475868292966
 20
575.5518484093287
 30
0.0
 10
819.7204076080058
 20
575.6528536757091
 30
0.0
 10
819.7918646814504
 20
575.7559727230258
 30
0.0
 10
819.9329082993929
 20
575.9651263168494
 30
0.0
 10
820.0244460208327
 20
576.1084445224266
 30
0.0
 10
820.2022020616112
 20
576.4034682851049
 30
0.0
 10
820.288421289678
 20
576.5551721066777
 30
0.0
 10
820.4551085395515
 20
576.8677626692958
 30
0.0
 10
820.5355779484524
 20
577.0286467471296
 30
0.0
 10
820.6515473430296
 20
577.2776366141422
 30
0.0
 10
820.6894135464723
 20
577.3619126443481
 30
0.0
 10
820.7449623396141
 20
577.4903661247836
 30
0.0
 10
820.7632830855608
 20
577.5335555649912
 30
0.0
 10
820.7994260022801
 20
577.6204688988859
 30
0.0
 10
820.8528753966816
 20
577.751595635871
 30
0.0
 10
820.9039922458451
 20
577.8850366797349
 30
0.0
 10
820.9699981481031
 20
578.0651047924518
 30
0.0
 10
821.0017620744511
 20
578.1557654053779
 30
0.0
 10
821.093295604491
 20
578.4296534359046
 30
0.0
 10
821.149311462852
 20
578.6147859987311
 30
0.0
 10
821.2510255376009
 20
578.990342315714
 30
0.0
 10
821.2967245756829
 20
579.1807654895092
 30
0.0
 10
821.3773632475129
 20
579.5671949031507
 30
0.0
 10
821.412304156873
 20
579.7632002485735
 30
0.0
 10
821.4415600067329
 20
579.9621951435992
 30
0.0
  0
SPLINE
  5
177
330
1F
100
AcDbEntity
  8
1
  6
Continuous
 62
    30
370
    13
100
AcDbSpline
210
0.0
220
0.0
230
1.0
 70
     8
 71
     3
 72
    71
 73
    67
 74
     0
 42
0.000000001
 43
0.0000000001
 40
0.0
 40
0.0
 40
0.0
 40
0.0
 40
0.0312499999999984
 40
0.0312499999999984
 40
0.0624999999999969
 40
0.0624999999999969
 40
0.0937499999999953
 40
0.0937499999999953
 40
0.1093749999999945
 40
0.1093749999999945
 40
0.117187499999994
 40
0.117187499999994
 40
0.1249999999999936
 40
0.1249999999999936
 40
0.1328124999999932
 40
0.1328124999999932
 40
0.1406249999999927
 40
0.1562499999999919
 40
0.1562499999999919
 40
0.1874999999999894
 40
0.1874999999999894
 40
0.2187499999999869
 40
0.2187499999999869
 40
0.2499999999999843
 40
0.2499999999999843
 40
0.2656249999999836
 40
0.2656249999999836
 40
0.2734374999999832
 40
0.2734374999999832
 40
0.2812499999999828
 40
0.3124999999999832
 40
0.3124999999999832
 40
0.3749999999999842
 40
0.3749999999999842
 40
0.4374999999999852
 40
0.4374999999999852
 40
0.4687499999999857
 40
0.4687499999999857
 40
0.4843749999999861
 40
0.4843749999999861
 40
0.4999999999999863
 40
0.4999999999999863
 40
0.5624999999999881
 40
0.5624999999999881
 40
0.6249999999999899
 40
0.6249999999999899
 40
0.6874999999999917
 40
0.6874999999999917
 40
0.7499999999999934
 40
0.7499999999999934
 40
0.8124999999999952
 40
0.8124999999999952
 40
0.8281249999999957
 40
0.8281249999999957
 40
0.8437499999999961
 40
0.8749999999999968
 40
0.8749999999999968
 40
0.9374999999999983
 40
0.9374999999999983
 40
0.9687499999999991
 40
0.9843749999999997
 40
0.9921874999999998
 40
0.99609375
 40
0.998046875
 40
0.998046875
 40
1.0
 40
1.0
 40
1.0
 40
1.0
 10
825.1516785141181
 20
579.4167405981447
 30
0.0
 10
825.1094301249952
 20
579.2210853545347
 30
0.0
 10
825.0587895103343
 20
579.0295536243053
 30
0.0
 10
824.9421543488601
 20
578.653990502082
 30
0.0
 10
824.8761561638859
 20
578.469961076593
 30
0.0
 10
824.7298743106793
 20
578.1088456137103
 30
0.0
 10
824.6495882883487
 20
577.9317608422758
 30
0.0
 10
824.5190487945317
 20
577.6710259678899
 30
0.0
 10
824.4738486994474
 20
577.5849306804827
 30
0.0
 10
824.4035789513714
 20
577.4569803774073
 30
0.0
 10
824.3797292909854
 20
577.4145043736303
 30
0.0
 10
824.3313485941303
 20
577.3301733852834
 30
0.0
 10
824.3068059661974
 20
577.2882961575856
 30
0.0
 10
824.2570321939032
 20
577.205104285349
 30
0.0
 10
824.2317862916314
 20
577.1637661251975
 30
0.0
 10
824.1806955815766
 20
577.0817584729314
 30
0.0
 10
824.1031962249612
 20
576.9598036239471
 30
0.0
 10
824.023190267576
 20
576.8409110956436
 30
0.0
 10
823.860030685706
 20
576.6069582685943
 30
0.0
 10
823.7470675009619
 20
576.4560905951827
 30
0.0
 10
823.5136032004818
 20
576.1634723609594
 30
0.0
 10
823.3930999567413
 20
576.0217246007948
 30
0.0
 10
823.1452006200643
 20
575.7465168801933
 30
0.0
 10
823.0178031384277
 20
575.6130587415158
 30
0.0
 10
822.8219164675783
 20
575.4185999604734
 30
0.0
 10
822.7558215340197
 20
575.3547363473535
 30
0.0
 10
822.655519956282
 20
575.2603235760861
 30
0.0
 10
822.6218716005728
 20
575.2290639284615
 30
0.0
 10
822.5543457800105
 20
575.167135497053
 30
0.0
 10
822.3849143852977
 20
575.013750116669
 30
0.0
 10
822.2124871925049
 20
574.8673211178015
 30
0.0
 10
821.7934321648183
 20
574.5279381894385
 30
0.0
 10
821.5071139837246
 20
574.3176831283919
 30
0.0
 10
820.9225588984476
 20
573.9242169824894
 30
0.0
 10
820.6243107300668
 20
573.7410346493366
 30
0.0
 10
820.1689519054851
 20
573.48414732923
 30
0.0
 10
820.0158302555344
 20
573.4015098219071
 30
0.0
 10
819.7842334791148
 20
573.2818155346565
 30
0.0
 10
819.7067153101469
 20
573.2426282393556
 30
0.0
 10
819.5510531363834
 20
573.1656428864757
 30
0.0
 10
819.4728527648182
 20
573.1278186383091
 30
0.0
 10
819.0812121256301
 20
572.9425172236322
 30
0.0
 10
818.765711205232
 20
572.806360204172
 30
0.0
 10
818.1307174548112
 20
572.5555236100497
 30
0.0
 10
817.8112230990183
 20
572.4408548348715
 30
0.0
 10
817.1684958035901
 20
572.2311578943063
 30
0.0
 10
816.8452619992647
 20
572.1361359360172
 30
0.0
 10
816.1952170198596
 20
571.9644693441567
 30
0.0
 10
815.868405360791
 20
571.8878283510666
 30
0.0
 10
815.2112930804122
 20
571.7520929146641
 30
0.0
 10
814.8809922214292
 20
571.6930005325416
 30
0.0
 10
814.4659517880995
 20
571.6298013294319
 30
0.0
 10
814.3828196195021
 20
571.617693754394
 30
0.0
 10
814.2165615500924
 20
571.594571937676
 30
0.0
 10
813.9671069599669
 20
571.56151714712
 30
0.0
 10
813.7174470485829
 20
571.5332988595443
 30
0.0
 10
813.2178450847321
 20
571.4832132897526
 30
0.0
 10
812.8844012596848
 20
571.4582819483463
 30
0.0
 10
812.3836327373095
 20
571.4333537256649
 30
0.0
 10
812.13309765928
 20
571.4240102356747
 30
0.0
 10
811.8405328320125
 20
571.4185577402088
 30
0.0
 10
811.694180572898
 20
571.4171945199454
 30
0.0
 10
811.6209868064799
 20
571.4168538587709
 30
0.0
 10
811.5896142509258
 20
571.4167809496971
 30
0.0
 10
811.5686983676187
 20
571.4167485891098
 30
0.0
 10
811.5583016815191
 20
571.4167405981447
 30
0.0
 10
811.5479106537053
 20
571.4167405981447
 30
0.0
  0
SPLINE
  5
178
330
1F
100
AcDbEntity
  8
1
  6
Continuous
 62
    30
370
    13
100
AcDbSpline
210
0.0
220
0.0
230
1.0
 70
     8
 71
     3
 72
    42
 73
    38
 74
     0
 42
0.000000001
 43
0.0000000001
 40
0.0
 40
0.0
 40
0.0
 40
0.0
 40
0.0625000000000016
 40
0.0625000000000016
 40
0.1250000000000031
 40
0.1250000000000031
 40
0.1875000000000047
 40
0.1875000000000047
 40
0.2187500000000048
 40
0.2343750000000043
 40
0.2343750000000043
 40
0.2500000000000038
 40
0.2500000000000038
 40
0.3125000000000038
 40
0.3125000000000038
 40
0.3750000000000038
 40
0.3750000000000038
 40
0.4375000000000038
 40
0.4375000000000038
 40
0.4687500000000038
 40
0.4843750000000036
 40
0.4843750000000036
 40
0.5000000000000033
 40
0.5000000000000033
 40
0.5625000000000032
 40
0.5625000000000032
 40
0.6250000000000031
 40
0.6250000000000031
 40
0.7500000000000024
 40
0.7500000000000024
 40
0.7812500000000026
 40
0.7812500000000026
 40
0.8125000000000026
 40
0.8125000000000026
 40
0.8750000000000018
 40
0.8750000000000018
 40
1.0
 40
1.0
 40
1.0
 40
1.0
 10
788.7210347405188
 20
576.3244153930198
 30
0.0
 10
788.8100355214121
 20
576.1015262844811
 30
0.0
 10
788.9016984613534
 20
575.8856935390608
 30
0.0
 10
789.0916805052277
 20
575.4678995197821
 30
0.0
 10
789.1900002149747
 20
575.2659408927973
 30
0.0
 10
789.3947986452232
 20
574.8759050221645
 30
0.0
 10
789.5012776545205
 20
574.6878294902995
 30
0.0
 10
789.668359561134
 20
574.4162693581338
 30
0.0
 10
789.7537431551721
 20
574.2831294646007
 30
0.0
 10
789.8421399673883
 20
574.1539912453209
 30
0.0
 10
789.9017695784363
 20
574.0687938846411
 30
0.0
 10
789.931962277881
 20
574.0266049670498
 30
0.0
 10
790.0840516621046
 20
573.8188411900894
 30
0.0
 10
790.2097461250654
 20
573.6621786615755
 30
0.0
 10
790.4701951378062
 20
573.3669100675493
 30
0.0
 10
790.6049493982172
 20
573.2283061055749
 30
0.0
 10
790.8844306597393
 20
572.9682721534324
 30
0.0
 10
791.0291573467427
 20
572.8468435195224
 30
0.0
 10
791.2543424922646
 20
572.6769950873693
 30
0.0
 10
791.368957811576
 20
572.5951455103487
 30
0.0
 10
791.4867138857345
 20
572.5178053713507
 30
0.0
 10
791.5659271531983
 20
572.4672364146596
 30
0.0
 10
791.6059279759846
 20
572.4424241153648
 30
0.0
 10
791.8071373479062
 20
572.3211675029547
 30
0.0
 10
791.971966023602
 20
572.233095975633
 30
0.0
 10
792.3095153125321
 20
572.0729911841942
 30
0.0
 10
792.48223504768
 20
572.000959991008
 30
0.0
 10
793.0123714392565
 20
571.8065599552124
 30
0.0
 10
793.3817809945883
 20
571.70581207398
 30
0.0
 10
793.8636435411054
 20
571.609416740032
 30
0.0
 10
793.9611193458529
 20
571.5916057280624
 30
0.0
 10
794.1573429043158
 20
571.5589227398668
 30
0.0
 10
794.2561374265898
 20
571.544037721852
 30
0.0
 10
794.5545522352544
 20
571.5034696423355
 30
0.0
 10
794.7562037691587
 20
571.4818675255358
 30
0.0
 10
795.369143291963
 20
571.4313768598321
 30
0.0
 10
795.7884124757397
 20
571.4167405981447
 30
0.0
 10
796.2179700545462
 20
571.4167405981447
 30
0.0
  0
SPLINE
  5
179
330
1F
100
AcDbEntity
  8
1
  6
Continuous
 62
    30
370
    13
100
AcDbSpline
210
0.0
220
0.0
230
1.0
 70
     8
 71
     3
 72
    42
 73
    38
 74
     0
 42
0.000000001
 43
0.0000000001
 40
0.0
 40
0.0
 40
0.0
 40
0.0
 40
0.1249999999999985
 40
0.1249999999999985
 40
0.2499999999999969
 40
0.2499999999999969
 40
0.3124999999999957
 40
0.3124999999999957
 40
0.3749999999999946
 40
0.3749999999999946
 40
0.4062499999999943
 40
0.4062499999999943
 40
0.437499999999994
 40
0.437499999999994
 40
0.4999999999999936
 40
0.4999999999999936
 40
0.5624999999999931
 40
0.5624999999999931
 40
0.6249999999999927
 40
0.6249999999999927
 40
0.6562499999999927
 40
0.6718749999999929
 40
0.6718749999999929
 40
0.6874999999999931
 40
0.6874999999999931
 40
0.7499999999999942
 40
0.7499999999999942
 40
0.8124999999999954
 40
0.8124999999999954
 40
0.8749999999999966
 40
0.8749999999999966
 40
0.9062499999999963
 40
0.9218749999999966
 40
0.9218749999999966
 40
0.9374999999999967
 40
0.9374999999999967
 40
1.0
 40
1.0
 40
1.0
 40
1.0
 10
826.8778512528644
 20
571.4167405981447
 30
0.0
 10
827.3072779148947
 20
571.4167405981447
 30
0.0
 10
827.7250607336077
 20
571.4313882671621
 30
0.0
 10
828.5366619937911
 20
571.49795593439
 30
0.0
 10
828.9304749028543
 20
571.5498410550039
 30
0.0
 10
829.502705871014
 20
571.6631704803502
 30
0.0
 10
829.6903685526869
 20
571.7068836943931
 30
0.0
 10
830.0594659629182
 20
571.8077541405097
 30
0.0
 10
830.2409001310704
 20
571.864908977989
 30
0.0
 10
830.5083518256025
 20
571.9621079858426
 30
0.0
 10
830.5967231371491
 20
571.9964227239655
 30
0.0
 10
830.7718845052985
 20
572.0691369247224
 30
0.0
 10
830.8581547205617
 20
572.1073212150628
 30
0.0
 10
831.1130999916196
 20
572.2275419125182
 30
0.0
 10
831.2779071205969
 20
572.315243030147
 30
0.0
 10
831.5976167481579
 20
572.5068132921448
 30
0.0
 10
831.7525186476065
 20
572.6106814050315
 30
0.0
 10
832.0529137221266
 20
572.835755916023
 30
0.0
 10
832.1984061973545
 20
572.9569608286876
 30
0.0
 10
832.4100414687431
 20
573.152761085223
 30
0.0
 10
832.5142096113567
 20
573.2541613806761
 30
0.0
 10
832.6160021676378
 20
573.361018417367
 30
0.0
 10
832.6833479535537
 20
573.4334936889613
 30
0.0
 10
832.7166936819027
 20
573.4702768167582
 30
0.0
 10
832.8814611773544
 20
573.6565038581351
 30
0.0
 10
833.0073847945793
 20
573.8132903284308
 30
0.0
 10
833.2489820385485
 20
574.1424680045884
 30
0.0
 10
833.3646559027866
 20
574.3148578505725
 30
0.0
 10
833.5872428047244
 20
574.6753376832866
 30
0.0
 10
833.6941562231289
 20
574.863425686754
 30
0.0
 10
833.8490343700768
 20
575.1575178672413
 30
0.0
 10
833.9250997979415
 20
575.3075560472382
 30
0.0
 10
833.9993002339013
 20
575.462140146015
 30
0.0
 10
834.0483739380935
 20
575.5662147546504
 30
0.0
 10
834.0727224730193
 20
575.6187810619658
 30
0.0
 10
834.1931347190871
 20
575.8832869532575
 30
0.0
 10
834.2855353691472
 20
576.1008991530312
 30
0.0
 10
834.3747865668918
 20
576.3244153930198
 30
0.0
  0
SPLINE
  5
17A
330
1F
100
AcDbEntity
  8
1
  6
Continuous
 62
    30
370
    13
100
AcDbSpline
210
0.0
220
0.0
230
1.0
 70
     8
 71
     3
 72
    46
 73
    42
 74
     0
 42
0.000000001
 43
0.0000000001
 40
0.0
 40
0.0
 40
0.0
 40
0.0
 40
0.0624999999999977
 40
0.0624999999999977
 40
0.0781249999999977
 40
0.0781249999999977
 40
0.0937499999999976
 40
0.1249999999999974
 40
0.1249999999999974
 40
0.1874999999999976
 40
0.1874999999999976
 40
0.2499999999999979
 40
0.2499999999999979
 40
0.3124999999999982
 40
0.3124999999999982
 40
0.3281249999999986
 40
0.3281249999999986
 40
0.3359374999999987
 40
0.3359374999999987
 40
0.3437499999999988
 40
0.3749999999999986
 40
0.3749999999999986
 40
0.4374999999999984
 40
0.4374999999999984
 40
0.4999999999999983
 40
0.4999999999999983
 40
0.5624999999999981
 40
0.5624999999999981
 40
0.5937499999999984
 40
0.5937499999999984
 40
0.6093749999999986
 40
0.6093749999999986
 40
0.6249999999999987
 40
0.6249999999999987
 40
0.687499999999999
 40
0.687499999999999
 40
0.7499999999999993
 40
0.7499999999999993
 40
0.8749999999999997
 40
0.8749999999999997
 40
1.0
 40
1.0
 40
1.0
 40
1.0
 10
837.9790301321318
 20
574.2367006933764
 30
0.0
 10
837.8849094785782
 20
573.9101161280539
 30
0.0
 10
837.7872635450844
 20
573.5933294775317
 30
0.0
 10
837.659696320675
 20
573.2092666580097
 30
0.0
 10
837.6338819934863
 20
573.1329809476856
 30
0.0
 10
837.581829935772
 20
572.9820585711284
 30
0.0
 10
837.5031023609886
 20
572.758096363477
 30
0.0
 10
837.4223164009283
 20
572.5412537093711
 30
0.0
 10
837.2577009333218
 20
572.1167364913872
 30
0.0
 10
837.1439016066755
 20
571.8459341376961
 30
0.0
 10
836.9065428108117
 20
571.3274463385906
 30
0.0
 10
836.7829839067763
 20
571.079765332651
 30
0.0
 10
836.5243749176313
 20
570.6066594837458
 30
0.0
 10
836.3893256439849
 20
570.3812373929875
 30
0.0
 10
836.2121854462704
 20
570.1130332616896
 30
0.0
 10
836.1763406868104
 20
570.0600717996658
 30
0.0
 10
836.1219260347585
 20
569.981644259023
 30
0.0
 10
836.1036696635776
 20
569.9556566073604
 30
0.0
 10
836.0670000265782
 20
569.9041065839541
 30
0.0
 10
835.9749309618162
 20
569.7762887135967
 30
0.0
 10
835.8808588340282
 20
569.6536933325871
 30
0.0
 10
835.6510331881485
 20
569.3690679379195
 30
0.0
 10
835.4924109140676
 20
569.1921093302383
 30
0.0
 10
835.163308561784
 20
568.8618852844285
 30
0.0
 10
834.9928294533579
 20
568.7086237222646
 30
0.0
 10
834.6390139915164
 20
568.4242856462205
 30
0.0
 10
834.4556784775589
 20
568.293211789554
 30
0.0
 10
834.1702968021365
 20
568.1123149731518
 30
0.0
 10
834.0734399129634
 20
568.0546369435598
 30
0.0
 10
833.9254678842362
 20
567.9719504810182
 30
0.0
 10
833.8756594193997
 20
567.9450078115027
 30
0.0
 10
833.7753046997517
 20
567.8924738898096
 30
0.0
 10
833.7248129881697
 20
567.8669097264413
 30
0.0
 10
833.4707688342735
 20
567.742507085731
 30
0.0
 10
833.2624580342895
 20
567.6539071030949
 30
0.0
 10
832.835359893049
 20
567.4963728582431
 30
0.0
 10
832.6165732683071
 20
567.427442077133
 30
0.0
 10
831.9440533096886
 20
567.2474120091179
 30
0.0
 10
831.4741648390764
 20
567.1629874764308
 30
0.0
 10
830.48896557108
 20
567.053532939618
 30
0.0
 10
829.973667522847
 20
567.0285533384035
 30
0.0
 10
829.434351851469
 20
567.0285533384035
 30
0.0
  0
SPLINE
  5
17B
330
1F
100
AcDbEntity
  8
1
  6
Continuous
 62
    30
370
    13
100
AcDbSpline
210
0.0
220
0.0
230
1.0
 70
     8
 71
     3
 72
    46
 73
    42
 74
     0
 42
0.000000001
 43
0.0000000001
 40
0.0
 40
0.0
 40
0.0
 40
0.0
 40
0.1250000000000028
 40
0.1250000000000028
 40
0.1875000000000044
 40
0.1875000000000044
 40
0.2187500000000054
 40
0.2187500000000054
 40
0.2343750000000058
 40
0.2343750000000058
 40
0.2500000000000062
 40
0.312500000000008
 40
0.312500000000008
 40
0.3750000000000098
 40
0.3750000000000098
 40
0.4375000000000117
 40
0.4375000000000117
 40
0.4687500000000128
 40
0.4843750000000134
 40
0.4843750000000134
 40
0.500000000000014
 40
0.500000000000014
 40
0.5625000000000154
 40
0.5625000000000154
 40
0.6250000000000169
 40
0.6250000000000169
 40
0.6875000000000182
 40
0.6875000000000182
 40
0.7500000000000197
 40
0.7500000000000197
 40
0.7578125000000194
 40
0.7578125000000194
 40
0.7656250000000191
 40
0.7812500000000181
 40
0.8125000000000154
 40
0.8125000000000154
 40
0.8750000000000102
 40
0.8750000000000102
 40
0.9375000000000051
 40
0.9375000000000051
 40
1.0
 40
1.0
 40
1.0
 40
1.0
 10
793.6614694559416
 20
567.0285533384035
 30
0.0
 10
793.1224902902856
 20
567.0285533384035
 30
0.0
 10
792.6053900505254
 20
567.053474689847
 30
0.0
 10
791.8611341868491
 20
567.1364940040006
 30
0.0
 10
791.6182847494653
 20
567.1717890544606
 30
0.0
 10
791.2617055532766
 20
567.2373953495196
 30
0.0
 10
791.1441283843476
 20
567.2613764269736
 30
0.0
 10
790.969666801772
 20
567.3006879868225
 30
0.0
 10
790.911883431224
 20
567.3143371688427
 30
0.0
 10
790.7971825405178
 20
567.3427147091253
 30
0.0
 10
790.5124919150435
 20
567.4163812957856
 30
0.0
 10
790.2380009406929
 20
567.5038793773099
 30
0.0
 10
789.8113238015613
 20
567.6628997785356
 30
0.0
 10
789.6042400649574
 20
567.751919642492
 30
0.0
 10
789.2020294814464
 20
567.9505116683529
 30
0.0
 10
789.006903382029
 20
568.0600810379447
 30
0.0
 10
788.7227488673457
 20
568.2412090244713
 30
0.0
 10
788.5828048616419
 20
568.3359702167257
 30
0.0
 10
788.445974348809
 20
568.4373218629343
 30
0.0
 10
788.35543583988
 20
568.5063900717203
 30
0.0
 10
788.3104699525684
 20
568.541705478575
 30
0.0
 10
788.0879667692159
 20
568.7215941757864
 30
0.0
 10
787.9171906988828
 20
568.8762275604943
 30
0.0
 10
787.5888066571255
 20
569.2078932477688
 30
0.0
 10
787.4311995369372
 20
569.3849231606623
 30
0.0
 10
787.127879452895
 20
569.7625942322311
 30
0.0
 10
786.9821673745189
 20
569.9632318517963
 30
0.0
 10
786.701346759586
 20
570.3896792143589
 30
0.0
 10
786.5662392063309
 20
570.615483468039
 30
0.0
 10
786.4194567395664
 20
570.8848207522603
 30
0.0
 10
786.4032160734586
 20
570.9149678022455
 30
0.0
 10
786.3709519843283
 20
570.9755496683051
 30
0.0
 10
786.3228542102901
 20
571.0669040036189
 30
0.0
 10
786.2126708564288
 20
571.2834370611993
 30
0.0
 10
786.1215852215871
 20
571.4748284659184
 30
0.0
 10
785.9435128776339
 20
571.865383729218
 30
0.0
 10
785.8302575474273
 20
572.1361057893096
 30
0.0
 10
785.6127987533952
 20
572.6987719468796
 30
0.0
 10
785.5085957326698
 20
572.9907122860727
 30
0.0
 10
785.3075518123886
 20
573.5967363595034
 30
0.0
 10
785.210710783502
 20
573.9108137252273
 30
0.0
 10
785.1167911752789
 20
574.2367006933764
 30
0.0
  0
SPLINE
  5
17C
330
1F
100
AcDbEntity
  8
1
  6
Continuous
 62
    30
370
    18
100
AcDbSpline
210
0.0
220
0.0
230
1.0
 70
     8
 71
     3
 72
    29
 73
    25
 74
     0
 42
0.000000001
 43
0.0000000001
 40
0.0
 40
0.0
 40
0.0
 40
0.0
 40
0.0065388488563086
 40
0.0376527629556562
 40
0.0712142626218211
 40
0.1071584071342628
 40
0.1405330572981104
 40
0.1755138320750539
 40
0.2160798398020053
 40
0.2589791827589842
 40
0.3040819835827412
 40
0.3511143962329322
 40
0.3997819649916359
 40
0.4497782579251706
 40
0.500799594632828
 40
0.5525818911977769
 40
0.604430727309471
 40
0.6596449073969425
 40
0.7161671009145721
 40
0.7741197770039794
 40
0.8335381839559861
 40
0.8943877362779274
 40
0.956552958856916
 40
1.0
 40
1.0
 40
1.0
 40
1.0
 10
387.3796200088609
 20
121.8717503405791
 30
0.0
 10
387.3865777503145
 20
121.8764272673081
 30
0.0
 10
387.4291475373867
 20
121.9046584797367
 30
0.0
 10
387.5497210908579
 20
121.9796670902481
 30
0.0
 10
387.7487590758632
 20
122.0981114643231
 30
0.0
 10
387.9953767249951
 20
122.2386923920537
 30
0.0
 10
388.2776414866497
 20
122.3944447453289
 30
0.0
 10
388.6137394267427
 20
122.576617397243
 30
0.0
 10
389.0095324476811
 20
122.7895446071545
 30
0.0
 10
389.4723298032794
 20
123.0387862023024
 30
0.0
 10
389.9875481341725
 20
123.3190489024911
 30
0.0
 10
390.5508374283639
 20
123.6310931102458
 30
0.0
 10
391.155900753105
 20
123.9750555347346
 30
0.0
 10
391.7956686101545
 20
124.3508930515376
 30
0.0
 10
392.4623576738162
 20
124.7582065214155
 30
0.0
 10
393.1465890924736
 20
125.1955178674874
 30
0.0
 10
393.8522275182561
 20
125.6698610598594
 30
0.0
 10
394.5779704861782
 20
126.1836249612495
 30
0.0
 10
395.3258587624827
 20
126.7428153397911
 30
0.0
 10
396.0831522645142
 20
127.3423071142496
 30
0.0
 10
396.8460669455832
 20
127.9833617701288
 30
0.0
 10
397.6087889636177
 20
128.6671739558162
 30
0.0
 10
398.2865780764222
 20
129.3144189864405
 30
0.0
 10
398.7006684677663
 20
129.741186137745
 30
0.0
 10
398.8687002004264
 20
129.9192637564363
 30
0.0
  0
SPLINE
  5
17D
330
1F
100
AcDbEntity
  8
1
  6
Continuous
 62
    30
370
    18
100
AcDbSpline
210
0.0
220
0.0
230
1.0
 70
     8
 71
     3
 72
    29
 73
    25
 74
     0
 42
0.000000001
 43
0.0000000001
 40
0.0
 40
0.0
 40
0.0
 40
0.0
 40
0.006538848856272
 40
0.0376527629556516
 40
0.0712142626218357
 40
0.1071584071342694
 40
0.1405330572981262
 40
0.175513832075057
 40
0.2160798398019999
 40
0.2589791827589673
 40
0.3040819835827305
 40
0.3511143962329168
 40
0.3997819649916329
 40
0.4497782579251562
 40
0.5007995946328244
 40
0.5525818911977884
 40
0.6044307273094408
 40
0.6596449073969209
 40
0.7161671009145582
 40
0.7741197770039628
 40
0.8335381839559753
 40
0.8943877362779108
 40
0.9565529588568967
 40
1.0
 40
1.0
 40
1.0
 40
1.0
 10
372.9481696626214
 20
173.8101818375446
 30
0.0
 10
372.9412119211678
 20
173.8055049108156
 30
0.0
 10
372.8986421340957
 20
173.777273698387
 30
0.0
 10
372.7780685806244
 20
173.7022650878756
 30
0.0
 10
372.579030595619
 20
173.5838207138005
 30
0.0
 10
372.3324129464871
 20
173.4432397860699
 30
0.0
 10
372.0501481848325
 20
173.2874874327947
 30
0.0
 10
371.7140502447396
 20
173.1053147808806
 30
0.0
 10
371.3182572238012
 20
172.8923875709692
 30
0.0
 10
370.855459868203
 20
172.6431459758213
 30
0.0
 10
370.3402415373098
 20
172.3628832756326
 30
0.0
 10
369.7769522431184
 20
172.050839067878
 30
0.0
 10
369.1718889183774
 20
171.7068766433891
 30
0.0
 10
368.5321210613279
 20
171.3310391265861
 30
0.0
 10
367.8654319976661
 20
170.9237256567081
 30
0.0
 10
367.1812005790088
 20
170.4864143106363
 30
0.0
 10
366.4755621532263
 20
170.0120711182644
 30
0.0
 10
365.7498191853043
 20
169.4983072168743
 30
0.0
 10
365.0019309089997
 20
168.9391168383328
 30
0.0
 10
364.2446374069681
 20
168.3396250638742
 30
0.0
 10
363.4817227258993
 20
167.698570407995
 30
0.0
 10
362.7190007078647
 20
167.0147582223076
 30
0.0
 10
362.0412115950602
 20
166.3675131916833
 30
0.0
 10
361.627121203716
 20
165.9407460403787
 30
0.0
 10
361.4590894710558
 20
165.7626684216874
 30
0.0
  0
SPLINE
  5
17E
330
1F
100
AcDbEntity
  8
1
  6
Continuous
 62
    30
370
    18
100
AcDbSpline
210
0.0
220
0.0
230
1.0
 70
     8
 71
     3
 72
    28
 73
    24
 74
     0
 42
0.000000001
 43
0.0000000001
 40
0.0
 40
0.0
 40
0.0
 40
0.0
 40
0.0362416004037278
 40
0.1014216545322943
 40
0.1637399687137569
 40
0.2248886559469448
 40
0.2847309098603824
 40
0.3432198714873573
 40
0.4003930196333709
 40
0.4563589600453372
 40
0.5052421040566164
 40
0.5561399397658336
 40
0.6064954422925883
 40
0.6560010418377179
 40
0.704371030232474
 40
0.7513048328987743
 40
0.7965000217399707
 40
0.8396634949662456
 40
0.8742307819554095
 40
0.9089756530176111
 40
0.9474259707232193
 40
0.9798657189810861
 40
1.0
 40
1.0
 40
1.0
 40
1.0
 10
398.8678667609084
 20
165.7616938232189
 30
0.0
 10
398.7282955039202
 20
165.9107784738307
 30
0.0
 10
398.3328290637862
 20
166.3227883260585
 30
0.0
 10
397.6671356044263
 20
166.9608648876127
 30
0.0
 10
396.8799672441704
 20
167.6700566189236
 30
0.0
 10
396.0956864556583
 20
168.3303625517993
 30
0.0
 10
395.3140063444545
 20
168.9492028735879
 30
0.0
 10
394.5400992215749
 20
169.5265811178404
 30
0.0
 10
393.7783878261838
 20
170.063555977728
 30
0.0
 10
393.0585579960713
 20
170.54397322212
 30
0.0
 10
392.3706353982285
 20
170.9806146859059
 30
0.0
 10
391.7167703132582
 20
171.3781263105645
 30
0.0
 10
391.0742319484469
 20
171.7539134667555
 30
0.0
 10
390.4613221019621
 20
172.1009131597014
 30
0.0
 10
389.8860707503288
 20
172.4184150351248
 30
0.0
 10
389.3559089736093
 20
172.70598356126
 30
0.0
 10
388.8780172261593
 20
172.9630218460955
 30
0.0
 10
388.4777917435384
 20
173.1787274589744
 30
0.0
 10
388.148335726589
 20
173.3582719118428
 30
0.0
 10
387.8723724440219
 20
173.5127443247387
 30
0.0
 10
387.6403058708727
 20
173.6477229165101
 30
0.0
 10
387.4753459674924
 20
173.7484507122357
 30
0.0
 10
387.405397236848
 20
173.7935997752718
 30
0.0
 10
387.3817456043707
 20
173.8093351942746
 30
0.0
  0
SPLINE
  5
17F
330
1F
100
AcDbEntity
  8
1
  6
Continuous
 62
    30
370
    18
100
AcDbSpline
210
0.0
220
0.0
230
1.0
 70
     8
 71
     3
 72
    28
 73
    24
 74
     0
 42
0.000000001
 43
0.0000000001
 40
0.0
 40
0.0
 40
0.0
 40
0.0
 40
0.0362416004037314
 40
0.101421654532298
 40
0.1637399687137651
 40
0.2248886559469519
 40
0.2847309098604022
 40
0.343219871487366
 40
0.4003930196333747
 40
0.4563589600453367
 40
0.5052421040566001
 40
0.5561399397658272
 40
0.6064954422925687
 40
0.6560010418377076
 40
0.7043710302324713
 40
0.7513048328987528
 40
0.796500021739957
 40
0.8396634949662405
 40
0.8742307819554089
 40
0.9089756530176167
 40
0.9474259707232165
 40
0.9798657189810703
 40
1.0
 40
1.0
 40
1.0
 40
1.0
 10
361.4599229105738
 20
129.9202383549047
 30
0.0
 10
361.5994941675619
 20
129.771153704293
 30
0.0
 10
361.994960607696
 20
129.3591438520651
 30
0.0
 10
362.6606540670559
 20
128.7210672905109
 30
0.0
 10
363.4478224273118
 20
128.0118755592
 30
0.0
 10
364.2321032158239
 20
127.3515696263242
 30
0.0
 10
365.0137833270277
 20
126.7327293045357
 30
0.0
 10
365.7876904499073
 20
126.1553510602832
 30
0.0
 10
366.5494018452983
 20
125.6183762003957
 30
0.0
 10
367.2692316754108
 20
125.1379589560037
 30
0.0
 10
367.9571542732535
 20
124.7013174922179
 30
0.0
 10
368.6110193582237
 20
124.3038058675592
 30
0.0
 10
369.253557723035
 20
123.9280187113682
 30
0.0
 10
369.8664675695198
 20
123.5810190184223
 30
0.0
 10
370.4417189211532
 20
123.2635171429989
 30
0.0
 10
370.9718806978726
 20
122.9759486168638
 30
0.0
 10
371.4497724453227
 20
122.7189103320282
 30
0.0
 10
371.8499979279436
 20
122.5032047191493
 30
0.0
 10
372.1794539448931
 20
122.3236602662809
 30
0.0
 10
372.4554172274601
 20
122.169187853385
 30
0.0
 10
372.6874838006094
 20
122.0342092616135
 30
0.0
 10
372.8524437039896
 20
121.933481465888
 30
0.0
 10
372.9223924346341
 20
121.8883324028519
 30
0.0
 10
372.9460440671114
 20
121.872596983849
 30
0.0
  0
SPLINE
  5
180
330
1F
100
AcDbEntity
  8
1
  6
Continuous
 62
    30
370
    18
100
AcDbSpline
210
0.0
220
0.0
230
1.0
 70
     8
 71
     3
 72
    18
 73
    14
 74
     0
 42
0.000000001
 43
0.0000000001
 40
0.0
 40
0.0
 40
0.0
 40
0.0
 40
0.079885726663012
 40
0.2447272145854121
 40
0.4140140986639998
 40
0.6007411059679181
 40
0.683608483280915
 40
0.7411802431007064
 40
0.7933948714676157
 40
0.8440438690173836
 40
0.8955087409415529
 40
0.9531585559806821
 40
1.0
 40
1.0
 40
1.0
 40
1.0
 10
372.9540553933425
 20
121.8718850390844
 30
0.0
 10
373.0098283148016
 20
121.8354587145986
 30
0.0
 10
373.1750618866901
 20
121.7282582470467
 30
0.0
 10
373.4181360871287
 20
121.5752405851644
 30
0.0
 10
373.6924978613554
 20
121.4075773455019
 30
0.0
 10
373.894860550395
 20
121.2894005184652
 30
0.0
 10
374.0795663446721
 20
121.1895547487358
 30
0.0
 10
374.2168216552182
 20
121.1205157527417
 30
0.0
 10
374.3612483303898
 20
121.0536160006054
 30
0.0
 10
374.534065539186
 20
120.9818783236572
 30
0.0
 10
374.7444241659794
 20
120.9072766231809
 30
0.0
 10
374.9716439413706
 20
120.8407722571441
 30
0.0
 10
375.1324382600538
 20
120.808160454337
 30
0.0
 10
375.2066301660522
 20
120.7953780301174
 30
0.0
  0
SPLINE
  5
181
330
1F
100
AcDbEntity
  8
1
  6
Continuous
 62
    30
370
    18
100
AcDbSpline
210
0.0
220
0.0
230
1.0
 70
     8
 71
     3
 72
    20
 73
    16
 74
     0
 42
0.000000001
 43
0.0000000001
 40
0.0
 40
0.0
 40
0.0
 40
0.0
 40
0.0101210517324225
 40
0.0681038676788592
 40
0.1195244691067211
 40
0.1661995169118296
 40
0.2116428978288992
 40
0.2595792279469831
 40
0.3138198216577656
 40
0.3806546340875738
 40
0.4707224190627749
 40
0.6121384211730143
 40
0.7781911920917607
 40
0.9362947356075425
 40
1.0
 40
1.0
 40
1.0
 40
1.0
 10
375.2212612760162
 20
174.891064723204
 30
0.0
 10
375.2051246333412
 20
174.8887379242767
 30
0.0
 10
375.0971569356519
 20
174.8721524289703
 30
0.0
 10
374.9159219175756
 20
174.8252410771342
 30
0.0
 10
374.6920411359074
 20
174.757822952733
 30
0.0
 10
374.5074220144275
 20
174.6895020216055
 30
0.0
 10
374.3531757307963
 20
174.6248085821602
 30
0.0
 10
374.2202032448994
 20
174.5631036624343
 30
0.0
 10
374.0980461336737
 20
174.501879158741
 30
0.0
 10
373.9738262824171
 20
174.4355632799893
 30
0.0
 10
373.8234484380509
 20
174.3508517732056
 30
0.0
 10
373.6336775273501
 20
174.2388608092743
 30
0.0
 10
373.3823610186037
 20
174.0842615310774
 30
0.0
 10
373.1510923004015
 20
173.938367571532
 30
0.0
 10
372.9987429630382
 20
173.8392503395283
 30
0.0
 10
372.9537251733767
 20
173.8097980346444
 30
0.0
  0
SPLINE
  5
182
330
1F
100
AcDbEntity
  8
1
  6
Continuous
 62
    30
370
    18
100
AcDbSpline
210
0.0
220
0.0
230
1.0
 70
     8
 71
     3
 72
    20
 73
    16
 74
     0
 42
0.000000001
 43
0.0000000001
 40
0.0
 40
0.0
 40
0.0
 40
0.0
 40
0.0101210517322809
 40
0.0681038676789299
 40
0.1195244691066995
 40
0.1661995169117615
 40
0.2116428978287439
 40
0.259579227946658
 40
0.3138198216574109
 40
0.3806546340872384
 40
0.470722419062274
 40
0.6121384211715659
 40
0.7781911920903435
 40
0.9362947356061184
 40
1.0
 40
1.0
 40
1.0
 40
1.0
 10
385.1065283954661
 20
120.7908674549196
 30
0.0
 10
385.1226650381408
 20
120.7931942538469
 30
0.0
 10
385.2306327358302
 20
120.8097797491533
 30
0.0
 10
385.4118677539064
 20
120.8566911009895
 30
0.0
 10
385.6357485355747
 20
120.9241092253907
 30
0.0
 10
385.8203676570545
 20
120.9924301565181
 30
0.0
 10
385.9746139406853
 20
121.0571235959632
 30
0.0
 10
386.1075864265821
 20
121.118828515689
 30
0.0
 10
386.229743537808
 20
121.1800530193823
 30
0.0
 10
386.3539633890645
 20
121.2463688981341
 30
0.0
 10
386.5043412334301
 20
121.3310804049174
 30
0.0
 10
386.6941121441305
 20
121.4430713688484
 30
0.0
 10
386.945428652876
 20
121.5976706470447
 30
0.0
 10
387.1766973710789
 20
121.7435646065906
 30
0.0
 10
387.329046708443
 20
121.8426818385948
 30
0.0
 10
387.3740644981056
 20
121.8721341434792
 30
0.0
  0
SPLINE
  5
183
330
1F
100
AcDbEntity
  8
1
  6
Continuous
 62
    30
370
    18
100
AcDbSpline
210
0.0
220
0.0
230
1.0
 70
     8
 71
     3
 72
    18
 73
    14
 74
     0
 42
0.000000001
 43
0.0000000001
 40
0.0
 40
0.0
 40
0.0
 40
0.0
 40
0.0798857266627219
 40
0.2447272145850306
 40
0.4140140986636905
 40
0.6007411059678084
 40
0.6836084832807673
 40
0.7411802431005948
 40
0.7933948714676169
 40
0.8440438690173855
 40
0.8955087409416603
 40
0.9531585559808251
 40
1.0
 40
1.0
 40
1.0
 40
1.0
 10
387.3737342781396
 20
173.8100471390393
 30
0.0
 10
387.3179613566807
 20
173.8464734635249
 30
0.0
 10
387.1527277847924
 20
173.9536739310767
 30
0.0
 10
386.909653584354
 20
174.106691592959
 30
0.0
 10
386.6352918101269
 20
174.2743548326216
 30
0.0
 10
386.4329291210873
 20
174.3925316596583
 30
0.0
 10
386.2482233268103
 20
174.4923774293877
 30
0.0
 10
386.1109680162643
 20
174.5614164253818
 30
0.0
 10
385.9665413410924
 20
174.6283161775182
 30
0.0
 10
385.7937241322959
 20
174.7000538544665
 30
0.0
 10
385.5833655055023
 20
174.7746555549428
 30
0.0
 10
385.3561457301112
 20
174.8411599209797
 30
0.0
 10
385.195351411428
 20
174.8737717237867
 30
0.0
 10
385.1211595054299
 20
174.8865541480062
 30
0.0
  0
SPLINE
  5
184
330
1F
100
AcDbEntity
  8
1
  6
Continuous
 62
    30
370
    13
100
AcDbSpline
210
0.0
220
0.0
230
1.0
 70
     8
 71
     3
 72
    19
 73
    15
 74
     0
 42
0.000000001
 43
0.0000000001
 40
0.0
 40
0.0
 40
0.0
 40
0.0
 40
0.2500000000000094
 40
0.2500000000000094
 40
0.5000000000000189
 40
0.5000000000000189
 40
0.6250000000000266
 40
0.6250000000000266
 40
0.68750000000003
 40
0.68750000000003
 40
0.718750000000028
 40
0.718750000000028
 40
0.7500000000000261
 40
1.0
 40
1.0
 40
1.0
 40
1.0
 10
388.1638948357411
 20
124.4796733166145
 30
0.0
 10
388.1638948357411
 20
124.4711004362485
 30
0.0
 10
388.1777968817595
 20
124.4766169191143
 30
0.0
 10
388.2317386626476
 20
124.5141937911534
 30
0.0
 10
388.2717852712375
 20
124.5462618892955
 30
0.0
 10
388.3508784924883
 20
124.6139281814149
 30
0.0
 10
388.380419648641
 20
124.6397526075464
 30
0.0
 10
388.4294755987993
 20
124.6834208307436
 30
0.0
 10
388.446618637279
 20
124.6987993285673
 30
0.0
 10
388.4735203080502
 20
124.7231086802425
 30
0.0
 10
388.4826926764406
 20
124.731425392416
 30
0.0
 10
388.5013890414011
 20
124.7484339372632
 30
0.0
 10
388.5871100243756
 20
124.8266658533883
 30
0.0
 10
388.6868624862221
 20
124.9199097733888
 30
0.0
 10
388.7857158716776
 20
125.0140901758754
 30
0.0
  0
SPLINE
  5
185
330
1F
100
AcDbEntity
  8
1
  6
Continuous
 62
    30
370
    13
100
AcDbSpline
210
0.0
220
0.0
230
1.0
 70
     8
 71
     3
 72
    18
 73
    14
 74
     0
 42
0.000000001
 43
0.0000000001
 40
0.0
 40
0.0
 40
0.0
 40
0.0
 40
0.2500000000000046
 40
0.2500000000000046
 40
0.5000000000000092
 40
0.5000000000000092
 40
0.6250000000000084
 40
0.6250000000000084
 40
0.6875000000000081
 40
0.6875000000000081
 40
0.7500000000000078
 40
0.7500000000000078
 40
1.0
 40
1.0
 40
1.0
 40
1.0
 10
388.7857158716776
 20
170.6678420022483
 30
0.0
 10
388.686976565307
 20
170.76191371838
 30
0.0
 10
388.5991010715879
 20
170.8440468532153
 30
0.0
 10
388.4459613822844
 20
170.984293751064
 30
0.0
 10
388.3806908509168
 20
171.0424132945232
 30
0.0
 10
388.3009078178341
 20
171.1107944118236
 30
0.0
 10
388.2773397731544
 20
171.1304474960707
 30
0.0
 10
388.2467365557239
 20
171.155038125757
 30
0.0
 10
388.2373274488056
 20
171.1624195619354
 30
0.0
 10
388.2201345623731
 20
171.175513907494
 30
0.0
 10
388.2123471171028
 20
171.1812285309
 30
0.0
 10
388.1777902558907
 20
171.2053891274012
 30
0.0
 10
388.1638948357411
 20
171.2108277331575
 30
0.0
 10
388.1638948357411
 20
171.2022588615092
 30
0.0
  0
SPLINE
  5
186
330
1F
100
AcDbEntity
  8
1
  6
Continuous
 62
    30
370
    13
100
AcDbSpline
210
0.0
220
0.0
230
1.0
 70
     8
 71
     3
 72
    19
 73
    15
 74
     0
 42
0.000000001
 43
0.0000000001
 40
0.0
 40
0.0
 40
0.0
 40
0.0
 40
0.2500000000000075
 40
0.2500000000000075
 40
0.500000000000015
 40
0.500000000000015
 40
0.6250000000000221
 40
0.6250000000000221
 40
0.6875000000000254
 40
0.6875000000000254
 40
0.7187500000000242
 40
0.7187500000000242
 40
0.7500000000000231
 40
1.0
 40
1.0
 40
1.0
 40
1.0
 10
372.1638948357411
 20
171.2022588615092
 30
0.0
 10
372.1638948357411
 20
171.2108317418752
 30
0.0
 10
372.1499927897227
 20
171.2053152590093
 30
0.0
 10
372.0960510088346
 20
171.1677383869703
 30
0.0
 10
372.0560044002447
 20
171.1356702888281
 30
0.0
 10
371.9769111789939
 20
171.0680039967087
 30
0.0
 10
371.9473700228412
 20
171.0421795705772
 30
0.0
 10
371.8983140726829
 20
170.99851134738
 30
0.0
 10
371.8811710342032
 20
170.9831328495564
 30
0.0
 10
371.854269363432
 20
170.9588234978811
 30
0.0
 10
371.8450969950416
 20
170.9505067857076
 30
0.0
 10
371.8264006300811
 20
170.9334982408605
 30
0.0
 10
371.7406796471066
 20
170.8552663247354
 30
0.0
 10
371.6409271852601
 20
170.7620224047349
 30
0.0
 10
371.5420737998047
 20
170.6678420022483
 30
0.0
  0
SPLINE
  5
187
330
1F
100
AcDbEntity
  8
1
  6
Continuous
 62
    30
370
    13
100
AcDbSpline
210
0.0
220
0.0
230
1.0
 70
     8
 71
     3
 72
    18
 73
    14
 74
     0
 42
0.000000001
 43
0.0000000001
 40
0.0
 40
0.0
 40
0.0
 40
0.0
 40
0.2500000000000013
 40
0.2500000000000013
 40
0.5000000000000026
 40
0.5000000000000026
 40
0.6250000000000032
 40
0.6250000000000032
 40
0.6875000000000037
 40
0.6875000000000037
 40
0.7500000000000041
 40
0.7500000000000041
 40
1.0
 40
1.0
 40
1.0
 40
1.0
 10
371.5420737998045
 20
125.0140901758754
 30
0.0
 10
371.6408131061751
 20
124.9200184597437
 30
0.0
 10
371.7286885998942
 20
124.8378853249084
 30
0.0
 10
371.8818282891977
 20
124.6976384270597
 30
0.0
 10
371.9470988205653
 20
124.6395188836005
 30
0.0
 10
372.026881853648
 20
124.5711377663
 30
0.0
 10
372.0504498983277
 20
124.5514846820529
 30
0.0
 10
372.0810531157582
 20
124.5268940523666
 30
0.0
 10
372.0904622226765
 20
124.5195126161883
 30
0.0
 10
372.107655109109
 20
124.5064182706297
 30
0.0
 10
372.1154425543793
 20
124.5007036472236
 30
0.0
 10
372.1499994155914
 20
124.4765430507224
 30
0.0
 10
372.163894835741
 20
124.4711044449662
 30
0.0
 10
372.163894835741
 20
124.4796733166145
 30
0.0
  0
SPLINE
  5
188
330
1F
100
AcDbEntity
  8
1
  6
Continuous
 62
    30
370
    13
100
AcDbSpline
210
0.0
220
0.0
230
1.0
 70
     8
 71
     3
 72
     8
 73
     4
 74
     0
 42
0.000000001
 43
0.0000000001
 40
0.0
 40
0.0
 40
0.0
 40
0.0
 40
1.0
 40
1.0
 40
1.0
 40
1.0
 10
375.2305127953792
 20
174.8948415260176
 30
0.0
 10
375.2387076850413
 20
174.8963373566917
 30
0.0
 10
375.2428422041622
 20
174.8950344616972
 30
0.0
 10
375.2428422041622
 20
174.8908840361061
 30
0.0
  0
SPLINE
  5
189
330
1F
100
AcDbEntity
  8
1
  6
Continuous
 62
    30
370
    13
100
AcDbSpline
210
0.0
220
0.0
230
1.0
 70
     8
 71
     3
 72
     8
 73
     4
 74
     0
 42
0.000000001
 43
0.0000000001
 40
0.0
 40
0.0
 40
0.0
 40
0.0
 40
1.0
 40
1.0
 40
1.0
 40
1.0
 10
375.2428422041621
 20
120.7910481420176
 30
0.0
 10
375.2428422041621
 20
120.7869029700886
 30
0.0
 10
375.2387172432669
 20
120.7855876943634
 30
0.0
 10
375.2304780468153
 20
120.7870973300794
 30
0.0
  0
SPLINE
  5
18A
330
1F
100
AcDbEntity
  8
1
  6
Continuous
 62
    30
370
    13
100
AcDbSpline
210
0.0
220
0.0
230
1.0
 70
     8
 71
     3
 72
     8
 73
     4
 74
     0
 42
0.000000001
 43
0.0000000001
 40
0.0
 40
0.0
 40
0.0
 40
0.0
 40
1.0
 40
1.0
 40
1.0
 40
1.0
 10
385.0972808110487
 20
120.7870913705182
 30
0.0
 10
385.0890833099584
 20
120.7855944044633
 30
0.0
 10
385.08494746732
 20
120.7868970521749
 30
0.0
 10
385.08494746732
 20
120.7910481420175
 30
0.0
  0
SPLINE
  5
18B
330
1F
100
AcDbEntity
  8
1
  6
Continuous
 62
    30
370
    13
100
AcDbSpline
210
0.0
220
0.0
230
1.0
 70
     8
 71
     3
 72
     8
 73
     4
 74
     0
 42
0.000000001
 43
0.0000000001
 40
0.0
 40
0.0
 40
0.0
 40
0.0
 40
1.0
 40
1.0
 40
1.0
 40
1.0
 10
385.08494746732
 20
174.8908840361061
 30
0.0
 10
385.08494746732
 20
174.8950292080351
 30
0.0
 10
385.0890724282152
 20
174.8963444837602
 30
0.0
 10
385.0973116246667
 20
174.8948348480442
 30
0.0
  0
SPLINE
  5
18C
330
1F
100
AcDbEntity
  8
1
  6
Continuous
 62
    30
370
    13
100
AcDbSpline
210
0.0
220
0.0
230
1.0
 70
     8
 71
     3
 72
    42
 73
    38
 74
     0
 42
0.000000001
 43
0.0000000001
 40
0.0
 40
0.0
 40
0.0
 40
0.0
 40
0.1249999999999985
 40
0.1249999999999985
 40
0.2499999999999969
 40
0.2499999999999969
 40
0.3124999999999957
 40
0.3124999999999957
 40
0.3749999999999946
 40
0.3749999999999946
 40
0.4062499999999943
 40
0.4062499999999943
 40
0.437499999999994
 40
0.437499999999994
 40
0.4999999999999936
 40
0.4999999999999936
 40
0.5624999999999931
 40
0.5624999999999931
 40
0.6249999999999927
 40
0.6249999999999927
 40
0.6562499999999927
 40
0.6718749999999929
 40
0.6718749999999929
 40
0.6874999999999931
 40
0.6874999999999931
 40
0.7499999999999942
 40
0.7499999999999942
 40
0.8124999999999954
 40
0.8124999999999954
 40
0.8749999999999966
 40
0.8749999999999966
 40
0.9062499999999963
 40
0.9218749999999966
 40
0.9218749999999966
 40
0.9374999999999967
 40
0.9374999999999967
 40
1.0
 40
1.0
 40
1.0
 40
1.0
 10
364.163894835741
 20
132.5110254899027
 30
0.0
 10
364.4440261217248
 20
132.0815988278725
 30
0.0
 10
364.7356252463076
 20
131.6638160091594
 30
0.0
 10
365.3410001672127
 20
130.8522147489761
 30
0.0
 10
365.6547897816479
 20
130.4584018399129
 30
0.0
 10
366.141233822573
 20
129.8861708717532
 30
0.0
 10
366.3060039568771
 20
129.6985081900802
 30
0.0
 10
366.6405559047427
 20
129.3294107798489
 30
0.0
 10
366.8103388902937
 20
129.1479766116967
 30
0.0
 10
367.0685306741669
 20
128.8805249171646
 30
0.0
 10
367.1551837152682
 20
128.7921536056181
 30
0.0
 10
367.3295933010026
 20
128.6169922374687
 30
0.0
 10
367.4168320451435
 20
128.5307220222054
 30
0.0
 10
367.6784746232742
 20
128.2757767511475
 30
0.0
 10
367.8528090367972
 20
128.1109696221702
 30
0.0
 10
368.2002620535282
 20
127.7912599946093
 30
0.0
 10
368.3733818380009
 20
127.6363580951607
 30
0.0
 10
368.7172302259835
 20
127.3359630206405
 30
0.0
 10
368.8879603845203
 20
127.1904705454127
 30
0.0
 10
369.1412383196148
 20
126.9788352740241
 30
0.0
 10
369.2671705208975
 20
126.8746671314105
 30
0.0
 10
369.3918251823325
 20
126.7728745751293
 30
0.0
 10
369.4746182575852
 20
126.7055287892134
 30
0.0
 10
369.5157750106902
 20
126.6721830608645
 30
0.0
 10
369.7198393337293
 20
126.5074155654127
 30
0.0
 10
369.8780628949819
 20
126.3814919481879
 30
0.0
 10
370.1832320204538
 20
126.1398947042186
 30
0.0
 10
370.3301790937027
 20
126.0242208399806
 30
0.0
 10
370.6114810134463
 20
125.8016339380428
 30
0.0
 10
370.7458380331711
 20
125.6947205196384
 30
0.0
 10
370.9368325264834
 20
125.5398423726904
 30
0.0
 10
371.0296924789699
 20
125.4637769448257
 30
0.0
 10
371.1183674086886
 20
125.3895765088658
 30
0.0
 10
371.1765265979575
 20
125.3405028046737
 30
0.0
 10
371.2051367227247
 20
125.3161542697478
 30
0.0
 10
371.3452629874834
 20
125.1957420236801
 30
0.0
 10
371.448394193219
 20
125.10334137362
 30
0.0
 10
371.5420737998045
 20
125.0140901758754
 30
0.0
  0
SPLINE
  5
18D
330
1F
100
AcDbEntity
  8
1
  6
Continuous
 62
    30
370
    13
100
AcDbSpline
210
0.0
220
0.0
230
1.0
 70
     8
 71
     3
 72
    42
 73
    38
 74
     0
 42
0.000000001
 43
0.0000000001
 40
0.0
 40
0.0
 40
0.0
 40
0.0
 40
0.0625000000000016
 40
0.0625000000000016
 40
0.1250000000000031
 40
0.1250000000000031
 40
0.1875000000000047
 40
0.1875000000000047
 40
0.2187500000000048
 40
0.2343750000000043
 40
0.2343750000000043
 40
0.2500000000000038
 40
0.2500000000000038
 40
0.3125000000000038
 40
0.3125000000000038
 40
0.3750000000000038
 40
0.3750000000000038
 40
0.4375000000000038
 40
0.4375000000000038
 40
0.4687500000000038
 40
0.4843750000000036
 40
0.4843750000000036
 40
0.5000000000000033
 40
0.5000000000000033
 40
0.5625000000000032
 40
0.5625000000000032
 40
0.6250000000000031
 40
0.6250000000000031
 40
0.7500000000000024
 40
0.7500000000000024
 40
0.7812500000000026
 40
0.7812500000000026
 40
0.8125000000000026
 40
0.8125000000000026
 40
0.8750000000000018
 40
0.8750000000000018
 40
1.0
 40
1.0
 40
1.0
 40
1.0
 10
371.5420737998047
 20
170.6678420022483
 30
0.0
 10
371.4486570350936
 20
170.578841221355
 30
0.0
 10
371.34634211644
 20
170.4871782814138
 30
0.0
 10
371.1253958528581
 20
170.2971962375395
 30
0.0
 10
371.0067608456586
 20
170.1988765277925
 30
0.0
 10
370.7544005595464
 20
169.9940780975439
 30
0.0
 10
370.6206728270731
 20
169.8875990882466
 30
0.0
 10
370.4095679741336
 20
169.7205171816331
 30
0.0
 10
370.3013857566939
 20
169.6351335875951
 30
0.0
 10
370.1893996686143
 20
169.5467367753788
 30
0.0
 10
370.1139120786701
 20
169.4871071643309
 30
0.0
 10
370.0757169918647
 20
169.4569144648862
 30
0.0
 10
369.8835779959337
 20
169.3048250806626
 30
0.0
 10
369.7256254621944
 20
169.1791306177018
 30
0.0
 10
369.4029196681041
 20
168.918681604961
 30
0.0
 10
369.238164486179
 20
168.78392734455
 30
0.0
 10
368.9033239861485
 20
168.5044460830278
 30
0.0
 10
368.7332373220102
 20
168.3597193960244
 30
0.0
 10
368.475094210058
 20
168.1345342505025
 30
0.0
 10
368.3452677029128
 20
168.0199189311911
 30
0.0
 10
368.214480122678
 20
167.9021628570327
 30
0.0
 10
368.1270930434985
 20
167.8229495895688
 30
0.0
 10
368.0832590174563
 20
167.7829487667826
 30
0.0
 10
367.8642918826812
 20
167.581739394861
 30
0.0
 10
367.6897625545991
 20
167.4169107191652
 30
0.0
 10
367.3428628724674
 20
167.0793614302351
 30
0.0
 10
367.170490817148
 20
166.9066416950872
 30
0.0
 10
366.6576542901241
 20
166.3765053035107
 30
0.0
 10
366.3215133628768
 20
166.0070957481789
 30
0.0
 10
365.9111219819311
 20
165.5252332016618
 30
0.0
 10
365.8294487919272
 20
165.4277573969143
 30
0.0
 10
365.667724687178
 20
165.2315338384513
 30
0.0
 10
365.5876309206307
 20
165.1327393161773
 30
0.0
 10
365.3496616134678
 20
164.8343245075128
 30
0.0
 10
365.1940987158836
 20
164.6326729736085
 30
0.0
 10
364.736685215493
 20
164.0197334508041
 30
0.0
 10
364.4441115236995
 20
163.6004642670275
 30
0.0
 10
364.1638948357411
 20
163.170906688221
 30
0.0
  0
SPLINE
  5
18E
330
1F
100
AcDbEntity
  8
1
  6
Continuous
 62
    30
370
    13
100
AcDbSpline
210
0.0
220
0.0
230
1.0
 70
     8
 71
     3
 72
    46
 73
    42
 74
     0
 42
0.000000001
 43
0.0000000001
 40
0.0
 40
0.0
 40
0.0
 40
0.0
 40
0.0638080666751114
 40
0.0638080666751114
 40
0.1276161333502228
 40
0.1276161333502228
 40
0.1914242000253342
 40
0.1914242000253342
 40
0.2233282333628897
 40
0.2233282333628897
 40
0.2392802500316675
 40
0.2392802500316675
 40
0.2552322667004452
 40
0.2552322667004452
 40
0.271184283369223
 40
0.271184283369223
 40
0.2871363000380007
 40
0.3190403333755564
 40
0.3190403333755564
 40
0.3828484000506658
 40
0.3828484000506658
 40
0.4466564667257752
 40
0.4466564667257752
 40
0.5104645334008846
 40
0.5104645334008846
 40
0.5423685667384404
 40
0.5423685667384404
 40
0.5583205834072181
 40
0.5583205834072181
 40
0.574272600075996
 40
0.6380806667511115
 40
0.6380806667511115
 40
0.7656968001013427
 40
0.7656968001013427
 40
0.8933129334515738
 40
0.8933129334515738
 40
0.9571210001266894
 40
0.9571210001266894
 40
0.9890250334642474
 40
0.9890250334642474
 40
1.0
 40
1.0
 40
1.0
 40
1.0
 10
372.1638948357411
 20
134.237198228649
 30
0.0
 10
372.163894835741
 20
134.279446617772
 30
0.0
 10
372.1567373370911
 20
134.3300872324328
 30
0.0
 10
372.1296752303449
 20
134.4467223939072
 30
0.0
 10
372.1097660987824
 20
134.5127205788813
 30
0.0
 10
372.0583658313776
 20
134.6590024320879
 30
0.0
 10
372.0268718200647
 20
134.7392884544185
 30
0.0
 10
371.9716072672123
 20
134.8698279482355
 30
0.0
 10
371.9518465466514
 20
134.9150280433198
 30
0.0
 10
371.9202644590696
 20
134.9852977913958
 30
0.0
 10
371.909406584607
 20
135.0091474517817
 30
0.0
 10
371.8871156286998
 20
135.0575281486369
 30
0.0
 10
371.8756775028759
 20
135.0820707765697
 30
0.0
 10
371.8522322673053
 20
135.131844548864
 30
0.0
 10
371.8402180420515
 20
135.1570904511358
 30
0.0
 10
371.8156717808974
 20
135.2081811611905
 30
0.0
 10
371.7780928538408
 20
135.285680517806
 30
0.0
 10
371.7383212761018
 20
135.3656864751912
 30
0.0
 10
371.6560545621555
 20
135.5288460570612
 30
0.0
 10
371.597585719848
 20
135.6418092418053
 30
0.0
 10
371.4742610630524
 20
135.8752735422853
 30
0.0
 10
371.4094029355005
 20
135.9957767860259
 30
0.0
 10
371.2739566572816
 20
136.2436761227029
 30
0.0
 10
371.2033670104043
 20
136.3710736043395
 30
0.0
 10
371.0935710534642
 20
136.5669602751889
 30
0.0
 10
371.0563195057951
 20
136.6330552087475
 30
0.0
 10
370.9995035599291
 20
136.7333567864852
 30
0.0
 10
370.9803962995221
 20
136.7670051421944
 30
0.0
 10
370.9419612694899
 20
136.8345309627566
 30
0.0
 10
370.8452972911982
 20
137.0039623574695
 30
0.0
 10
370.7458522662703
 20
137.1763895502623
 30
0.0
 10
370.5024385099871
 20
137.5954445779489
 30
0.0
 10
370.3338629665301
 20
137.8817627590425
 30
0.0
 10
369.9863580727451
 20
138.4663178443195
 30
0.0
 10
369.8074153467314
 20
138.7645660127004
 30
0.0
 10
369.5323282710604
 20
139.2199248372821
 30
0.0
 10
369.4395157314528
 20
139.3730464872328
 30
0.0
 10
369.2987257723009
 20
139.6046432636523
 30
0.0
 10
369.2515337226307
 20
139.6821614326202
 30
0.0
 10
369.1877655750152
 20
139.786766362324
 30
0.0
 10
369.1714097901407
 20
139.8135839046516
 30
0.0
 10
369.1550259588633
 20
139.8404353145031
 30
0.0
  0
SPLINE
  5
18F
330
1F
100
AcDbEntity
  8
1
  6
Continuous
 62
    30
370
    13
100
AcDbSpline
210
0.0
220
0.0
230
1.0
 70
     8
 71
     3
 72
    46
 73
    42
 74
     0
 42
0.000000001
 43
0.0000000001
 40
0.0
 40
0.0
 40
0.0
 40
0.0
 40
0.0109749665733894
 40
0.0109749665733894
 40
0.0428789999097328
 40
0.0428789999097328
 40
0.1066870665824189
 40
0.1066870665824189
 40
0.2343031999277911
 40
0.2343031999277911
 40
0.3619193332731635
 40
0.3619193332731635
 40
0.4257273999458494
 40
0.4416794166140207
 40
0.4416794166140207
 40
0.4576314332821925
 40
0.4576314332821925
 40
0.4895354666185355
 40
0.4895354666185355
 40
0.5533435332912198
 40
0.5533435332912198
 40
0.617151599963904
 40
0.617151599963904
 40
0.6809596666365884
 40
0.6809596666365884
 40
0.7128636999729296
 40
0.7288157166411001
 40
0.7288157166411001
 40
0.7447677333092708
 40
0.7447677333092708
 40
0.7607197499774415
 40
0.7607197499774415
 40
0.7766717666456119
 40
0.7766717666456119
 40
0.8085757999819531
 40
0.8085757999819531
 40
0.8723838666546353
 40
0.8723838666546353
 40
0.9361919333273178
 40
0.9361919333273178
 40
1.0
 40
1.0
 40
1.0
 40
1.0
 10
369.155025958693
 20
155.8414968633413
 30
0.0
 10
369.1714097900273
 20
155.8683482732861
 30
0.0
 10
369.1877655749587
 20
155.8951658157069
 30
0.0
 10
369.2515337226308
 20
155.9997707455035
 30
0.0
 10
369.2987257723009
 20
156.0772889144714
 30
0.0
 10
369.4395157314528
 20
156.3088856908909
 30
0.0
 10
369.5323282710605
 20
156.4620073408416
 30
0.0
 10
369.8074153467314
 20
156.9173661654233
 30
0.0
 10
369.9863580727451
 20
157.2156143338042
 30
0.0
 10
370.3338629665301
 20
157.8001694190812
 30
0.0
 10
370.5024385099872
 20
158.0864876001748
 30
0.0
 10
370.7458522662703
 20
158.5055426278614
 30
0.0
 10
370.8452972911983
 20
158.6779698206542
 30
0.0
 10
370.94196126949
 20
158.8474012153671
 30
0.0
 10
370.9803962995222
 20
158.9149270359293
 30
0.0
 10
370.9995035599292
 20
158.9485753916385
 30
0.0
 10
371.0563195057952
 20
159.0488769693762
 30
0.0
 10
371.0935710534643
 20
159.1149719029348
 30
0.0
 10
371.2033670104043
 20
159.3108585737842
 30
0.0
 10
371.2739566572816
 20
159.4382560554208
 30
0.0
 10
371.4094029355005
 20
159.6861553920978
 30
0.0
 10
371.4742610630525
 20
159.8066586358384
 30
0.0
 10
371.597585719848
 20
160.0401229363184
 30
0.0
 10
371.6560545621556
 20
160.1530861210624
 30
0.0
 10
371.7383212761019
 20
160.3162457029325
 30
0.0
 10
371.7780928538409
 20
160.3962516603176
 30
0.0
 10
371.8156717808974
 20
160.4737510169332
 30
0.0
 10
371.8402180420516
 20
160.5248417269879
 30
0.0
 10
371.8522322673054
 20
160.5500876292597
 30
0.0
 10
371.875677502876
 20
160.599861401554
 30
0.0
 10
371.8871156286999
 20
160.6244040294868
 30
0.0
 10
371.909406584607
 20
160.672784726342
 30
0.0
 10
371.9202644590697
 20
160.6966343867279
 30
0.0
 10
371.9518465466515
 20
160.7669041348039
 30
0.0
 10
371.9716072672123
 20
160.8121042298882
 30
0.0
 10
372.0268718200647
 20
160.9426437237052
 30
0.0
 10
372.0583658313777
 20
161.0229297460357
 30
0.0
 10
372.1097660987825
 20
161.1692115992424
 30
0.0
 10
372.129675230345
 20
161.2352097842166
 30
0.0
 10
372.1567373370912
 20
161.3518449456909
 30
0.0
 10
372.1638948357411
 20
161.4024855603517
 30
0.0
 10
372.1638948357411
 20
161.4447339494746
 30
0.0
  0
SPLINE
  5
190
330
1F
100
AcDbEntity
  8
1
  6
Continuous
 62
    30
370
    13
100
AcDbSpline
210
0.0
220
0.0
230
1.0
 70
     8
 71
     3
 72
    42
 73
    38
 74
     0
 42
0.000000001
 43
0.0000000001
 40
0.0
 40
0.0
 40
0.0
 40
0.0
 40
0.0625000000000017
 40
0.0625000000000017
 40
0.1250000000000034
 40
0.1250000000000034
 40
0.1875000000000051
 40
0.1875000000000051
 40
0.2187500000000064
 40
0.2343750000000065
 40
0.2343750000000065
 40
0.2500000000000066
 40
0.2500000000000066
 40
0.3125000000000085
 40
0.3125000000000085
 40
0.3750000000000105
 40
0.3750000000000105
 40
0.4375000000000125
 40
0.4375000000000125
 40
0.468750000000013
 40
0.4843750000000127
 40
0.4843750000000127
 40
0.5000000000000124
 40
0.5000000000000124
 40
0.5625000000000113
 40
0.5625000000000113
 40
0.6250000000000101
 40
0.6250000000000101
 40
0.7500000000000077
 40
0.7500000000000077
 40
0.7812500000000071
 40
0.7812500000000071
 40
0.8125000000000066
 40
0.8125000000000066
 40
0.8750000000000044
 40
0.8750000000000044
 40
1.0
 40
1.0
 40
1.0
 40
1.0
 10
388.7857158716776
 20
125.0140901758754
 30
0.0
 10
388.8791326363886
 20
125.1030909567686
 30
0.0
 10
388.9814475550422
 20
125.1947538967099
 30
0.0
 10
389.2023938186241
 20
125.3847359405842
 30
0.0
 10
389.3210288258235
 20
125.4830556503312
 30
0.0
 10
389.5733891119358
 20
125.6878540805797
 30
0.0
 10
389.707116844409
 20
125.7943330898771
 30
0.0
 10
389.9182216973487
 20
125.9614149964905
 30
0.0
 10
390.0264039147883
 20
126.0467985905286
 30
0.0
 10
390.1383900028679
 20
126.1351954027449
 30
0.0
 10
390.2138775928121
 20
126.1948250137928
 30
0.0
 10
390.2520726796175
 20
126.2250177132374
 30
0.0
 10
390.4442116755485
 20
126.3771070974611
 30
0.0
 10
390.6021642092878
 20
126.5028015604219
 30
0.0
 10
390.9248700033781
 20
126.7632505731627
 30
0.0
 10
391.0896251853032
 20
126.8980048335737
 30
0.0
 10
391.4244656853336
 20
127.1774860950959
 30
0.0
 10
391.5945523494721
 20
127.3222127820993
 30
0.0
 10
391.8526954614242
 20
127.5473979276212
 30
0.0
 10
391.9825219685694
 20
127.6620132469326
 30
0.0
 10
392.1133095488042
 20
127.779769321091
 30
0.0
 10
392.2006966279837
 20
127.8589825885549
 30
0.0
 10
392.2445306540259
 20
127.8989834113411
 30
0.0
 10
392.463497788801
 20
128.1001927832627
 30
0.0
 10
392.6380271168831
 20
128.2650214589585
 30
0.0
 10
392.9849267990148
 20
128.6025707478885
 30
0.0
 10
393.1572988543342
 20
128.7752904830365
 30
0.0
 10
393.6701353813581
 20
129.305426874613
 30
0.0
 10
394.0062763086054
 20
129.6748364299448
 30
0.0
 10
394.4166676895511
 20
130.1566989764618
 30
0.0
 10
394.498340879555
 20
130.2541747812094
 30
0.0
 10
394.6600649843042
 20
130.4503983396723
 30
0.0
 10
394.7401587508515
 20
130.5491928619464
 30
0.0
 10
394.9781280580144
 20
130.8476076706109
 30
0.0
 10
395.1336909555986
 20
131.0492592045152
 30
0.0
 10
395.5911044559892
 20
131.6621987273195
 30
0.0
 10
395.8836781477827
 20
132.0814679110962
 30
0.0
 10
396.1638948357411
 20
132.5110254899027
 30
0.0
  0
SPLINE
  5
191
330
1F
100
AcDbEntity
  8
1
  6
Continuous
 62
    30
370
    13
100
AcDbSpline
210
0.0
220
0.0
230
1.0
 70
     8
 71
     3
 72
    42
 73
    38
 74
     0
 42
0.000000001
 43
0.0000000001
 40
0.0
 40
0.0
 40
0.0
 40
0.0
 40
0.1250000000000004
 40
0.1250000000000004
 40
0.2500000000000007
 40
0.2500000000000007
 40
0.312500000000001
 40
0.312500000000001
 40
0.3750000000000013
 40
0.3750000000000013
 40
0.4062500000000015
 40
0.4062500000000015
 40
0.4375000000000017
 40
0.4375000000000017
 40
0.5000000000000011
 40
0.5000000000000011
 40
0.5625000000000006
 40
0.5625000000000006
 40
0.6249999999999999
 40
0.6249999999999999
 40
0.6562499999999998
 40
0.6718749999999999
 40
0.6718749999999999
 40
0.6875000000000001
 40
0.6875000000000001
 40
0.7499999999999992
 40
0.7499999999999992
 40
0.8124999999999984
 40
0.8124999999999984
 40
0.8749999999999977
 40
0.8749999999999977
 40
0.9062499999999973
 40
0.9218749999999972
 40
0.9218749999999972
 40
0.9374999999999971
 40
0.9374999999999971
 40
1.0
 40
1.0
 40
1.0
 40
1.0
 10
396.1638948357411
 20
163.1709066882209
 30
0.0
 10
395.8837635497572
 20
163.6003333502512
 30
0.0
 10
395.5921644251745
 20
164.0181161689642
 30
0.0
 10
394.9867895042694
 20
164.8297174291476
 30
0.0
 10
394.6729998898342
 20
165.2235303382108
 30
0.0
 10
394.1865558489091
 20
165.7957613063705
 30
0.0
 10
394.021785714605
 20
165.9834239880434
 30
0.0
 10
393.6872337667394
 20
166.3525213982748
 30
0.0
 10
393.5174507811884
 20
166.5339555664269
 30
0.0
 10
393.2592589973152
 20
166.801407260959
 30
0.0
 10
393.1726059562139
 20
166.8897785725055
 30
0.0
 10
392.9981963704795
 20
167.0649399406551
 30
0.0
 10
392.9109576263386
 20
167.1512101559182
 30
0.0
 10
392.6493150482079
 20
167.4061554269761
 30
0.0
 10
392.4749806346849
 20
167.5709625559534
 30
0.0
 10
392.1275276179539
 20
167.8906721835143
 30
0.0
 10
391.9544078334812
 20
168.045574082963
 30
0.0
 10
391.6105594454986
 20
168.3459691574832
 30
0.0
 10
391.4398292869618
 20
168.491461632711
 30
0.0
 10
391.1865513518673
 20
168.7030969040995
 30
0.0
 10
391.0606191505846
 20
168.8072650467132
 30
0.0
 10
390.9359644891496
 20
168.9090576029944
 30
0.0
 10
390.8531714138969
 20
168.9764033889102
 30
0.0
 10
390.8120146607919
 20
169.0097491172592
 30
0.0
 10
390.6079503377528
 20
169.1745166127109
 30
0.0
 10
390.4497267765002
 20
169.3004402299358
 30
0.0
 10
390.1445576510283
 20
169.5420374739051
 30
0.0
 10
389.9976105777794
 20
169.6577113381431
 30
0.0
 10
389.7163086580358
 20
169.8802982400808
 30
0.0
 10
389.581951638311
 20
169.9872116584853
 30
0.0
 10
389.3909571449987
 20
170.1420898054333
 30
0.0
 10
389.2980971925122
 20
170.2181552332979
 30
0.0
 10
389.2094222627935
 20
170.2923556692578
 30
0.0
 10
389.1512630735245
 20
170.34142937345
 30
0.0
 10
389.1226529487574
 20
170.3657779083758
 30
0.0
 10
388.9825266839987
 20
170.4861901544436
 30
0.0
 10
388.8793954782631
 20
170.5785908045037
 30
0.0
 10
388.7857158716776
 20
170.6678420022483
 30
0.0
  0
SPLINE
  5
192
330
1F
100
AcDbEntity
  8
1
  6
Continuous
 62
    30
370
    13
100
AcDbSpline
210
0.0
220
0.0
230
1.0
 70
     8
 71
     3
 72
    46
 73
    42
 74
     0
 42
0.000000001
 43
0.0000000001
 40
0.0
 40
0.0
 40
0.0
 40
0.0
 40
0.0109749665257251
 40
0.0109749665257251
 40
0.042878999863607
 40
0.042878999863607
 40
0.106687066539371
 40
0.106687066539371
 40
0.2343031998908991
 40
0.2343031998908991
 40
0.3619193332424272
 40
0.3619193332424272
 40
0.4257273999181911
 40
0.4416794165871308
 40
0.4416794165871308
 40
0.4576314332560706
 40
0.4576314332560706
 40
0.4895354665939506
 40
0.4895354665939506
 40
0.5533435332697082
 40
0.5533435332697082
 40
0.6171515999454658
 40
0.6171515999454658
 40
0.6809596666212233
 40
0.6809596666212233
 40
0.712863699959101
 40
0.72881571662804
 40
0.72881571662804
 40
0.7447677332969787
 40
0.7447677332969787
 40
0.7607197499659176
 40
0.7607197499659176
 40
0.7766717666348564
 40
0.7766717666348564
 40
0.808575799972734
 40
0.808575799972734
 40
0.8723838666484893
 40
0.8723838666484893
 40
0.9361919333242447
 40
0.9361919333242447
 40
1.0
 40
1.0
 40
1.0
 40
1.0
 10
391.1727637125735
 20
139.8404353144286
 30
0.0
 10
391.1563798813113
 20
139.813583904602
 30
0.0
 10
391.1400240964518
 20
139.7867663622992
 30
0.0
 10
391.0762559488514
 20
139.6821614326202
 30
0.0
 10
391.0290638991812
 20
139.6046432636523
 30
0.0
 10
390.8882739400294
 20
139.3730464872327
 30
0.0
 10
390.7954614004217
 20
139.2199248372821
 30
0.0
 10
390.5203743247508
 20
138.7645660127004
 30
0.0
 10
390.341431598737
 20
138.4663178443195
 30
0.0
 10
389.9939267049521
 20
137.8817627590425
 30
0.0
 10
389.825351161495
 20
137.5954445779488
 30
0.0
 10
389.5819374052119
 20
137.1763895502623
 30
0.0
 10
389.4824923802839
 20
137.0039623574694
 30
0.0
 10
389.3858284019922
 20
136.8345309627566
 30
0.0
 10
389.34739337196
 20
136.7670051421943
 30
0.0
 10
389.328286111553
 20
136.7333567864852
 30
0.0
 10
389.271470165687
 20
136.6330552087475
 30
0.0
 10
389.2342186180178
 20
136.5669602751888
 30
0.0
 10
389.1244226610779
 20
136.3710736043395
 30
0.0
 10
389.0538330142006
 20
136.2436761227028
 30
0.0
 10
388.9183867359817
 20
135.9957767860259
 30
0.0
 10
388.8535286084297
 20
135.8752735422853
 30
0.0
 10
388.7302039516342
 20
135.6418092418053
 30
0.0
 10
388.6717351093266
 20
135.5288460570612
 30
0.0
 10
388.5894683953803
 20
135.3656864751912
 30
0.0
 10
388.5496968176413
 20
135.285680517806
 30
0.0
 10
388.5121178905847
 20
135.2081811611905
 30
0.0
 10
388.4875716294306
 20
135.1570904511358
 30
0.0
 10
388.4755574041768
 20
135.131844548864
 30
0.0
 10
388.4521121686062
 20
135.0820707765697
 30
0.0
 10
388.4406740427823
 20
135.0575281486369
 30
0.0
 10
388.4183830868752
 20
135.0091474517816
 30
0.0
 10
388.4075252124125
 20
134.9852977913957
 30
0.0
 10
388.3759431248307
 20
134.9150280433198
 30
0.0
 10
388.3561824042698
 20
134.8698279482355
 30
0.0
 10
388.3009178514174
 20
134.7392884544184
 30
0.0
 10
388.2694238401045
 20
134.6590024320879
 30
0.0
 10
388.2180235726997
 20
134.5127205788813
 30
0.0
 10
388.1981144411372
 20
134.4467223939071
 30
0.0
 10
388.171052334391
 20
134.3300872324328
 30
0.0
 10
388.1638948357411
 20
134.2794466177719
 30
0.0
 10
388.1638948357411
 20
134.237198228649
 30
0.0
  0
SPLINE
  5
193
330
1F
100
AcDbEntity
  8
1
  6
Continuous
 62
    30
370
    13
100
AcDbSpline
210
0.0
220
0.0
230
1.0
 70
     8
 71
     3
 72
    46
 73
    42
 74
     0
 42
0.000000001
 43
0.0000000001
 40
0.0
 40
0.0
 40
0.0
 40
0.0
 40
0.0638080666750907
 40
0.0638080666750907
 40
0.1276161333501814
 40
0.1276161333501814
 40
0.1914242000252721
 40
0.1914242000252721
 40
0.2233282333628173
 40
0.2233282333628173
 40
0.23928025003159
 40
0.23928025003159
 40
0.2552322667003627
 40
0.2552322667003627
 40
0.2711842833691354
 40
0.2711842833691354
 40
0.287136300037908
 40
0.3190403333754532
 40
0.3190403333754532
 40
0.3828484000505455
 40
0.3828484000505455
 40
0.446656466725638
 40
0.446656466725638
 40
0.5104645334007303
 40
0.5104645334007303
 40
0.5423685667382775
 40
0.5423685667382775
 40
0.5583205834070514
 40
0.5583205834070514
 40
0.5742726000758251
 40
0.6380806667509199
 40
0.6380806667509199
 40
0.7656968001011095
 40
0.7656968001011095
 40
0.8933129334512993
 40
0.8933129334512993
 40
0.957121000126394
 40
0.957121000126394
 40
0.9890250334639414
 40
0.9890250334639414
 40
1.0
 40
1.0
 40
1.0
 40
1.0
 10
388.1638948357411
 20
161.4447339494746
 30
0.0
 10
388.1638948357411
 20
161.4024855603517
 30
0.0
 10
388.171052334391
 20
161.3518449456909
 30
0.0
 10
388.1981144411372
 20
161.2352097842165
 30
0.0
 10
388.2180235726997
 20
161.1692115992424
 30
0.0
 10
388.2694238401045
 20
161.0229297460357
 30
0.0
 10
388.3009178514174
 20
160.9426437237052
 30
0.0
 10
388.3561824042698
 20
160.8121042298882
 30
0.0
 10
388.3759431248307
 20
160.7669041348039
 30
0.0
 10
388.4075252124125
 20
160.6966343867279
 30
0.0
 10
388.4183830868752
 20
160.672784726342
 30
0.0
 10
388.4406740427823
 20
160.6244040294868
 30
0.0
 10
388.4521121686062
 20
160.599861401554
 30
0.0
 10
388.4755574041768
 20
160.5500876292597
 30
0.0
 10
388.4875716294306
 20
160.5248417269878
 30
0.0
 10
388.5121178905847
 20
160.4737510169332
 30
0.0
 10
388.5496968176413
 20
160.3962516603176
 30
0.0
 10
388.5894683953803
 20
160.3162457029324
 30
0.0
 10
388.6717351093266
 20
160.1530861210624
 30
0.0
 10
388.7302039516342
 20
160.0401229363184
 30
0.0
 10
388.8535286084297
 20
159.8066586358384
 30
0.0
 10
388.9183867359817
 20
159.6861553920977
 30
0.0
 10
389.0538330142006
 20
159.4382560554208
 30
0.0
 10
389.1244226610779
 20
159.3108585737841
 30
0.0
 10
389.2342186180178
 20
159.1149719029348
 30
0.0
 10
389.271470165687
 20
159.0488769693762
 30
0.0
 10
389.328286111553
 20
158.9485753916385
 30
0.0
 10
389.34739337196
 20
158.9149270359293
 30
0.0
 10
389.3858284019922
 20
158.847401215367
 30
0.0
 10
389.4824923802839
 20
158.6779698206542
 30
0.0
 10
389.5819374052119
 20
158.5055426278614
 30
0.0
 10
389.825351161495
 20
158.0864876001748
 30
0.0
 10
389.9939267049521
 20
157.8001694190811
 30
0.0
 10
390.341431598737
 20
157.2156143338042
 30
0.0
 10
390.5203743247508
 20
156.9173661654233
 30
0.0
 10
390.7954614004217
 20
156.4620073408415
 30
0.0
 10
390.8882739400294
 20
156.3088856908909
 30
0.0
 10
391.0290638991812
 20
156.0772889144714
 30
0.0
 10
391.0762559488514
 20
155.9997707455034
 30
0.0
 10
391.1400240964674
 20
155.8951658157989
 30
0.0
 10
391.1563798813424
 20
155.8683482734705
 30
0.0
 10
391.1727637126202
 20
155.8414968636183
 30
0.0
  0
ENDSEC
  0
SECTION
  2
OBJECTS
  0
DICTIONARY
  5
C
330
0
100
AcDbDictionary
281
     1
  3
ACAD_DETAILVIEWSTYLE
350
1E8
  3
ACAD_GROUP
350
D
  3
ACAD_LAYOUT
350
1A
  3
ACAD_MATERIAL
350
43
  3
ACAD_MLEADERSTYLE
350
6B
  3
ACAD_MLINESTYLE
350
17
  3
ACAD_PLOTSETTINGS
350
19
  3
ACAD_PLOTSTYLENAME
350
E
  3
ACAD_SCALELIST
350
47
  3
ACAD_SECTIONVIEWSTYLE
350
1E9
  3
ACAD_TABLESTYLE
350
69
  3
ACAD_VISUALSTYLE
350
2A
  3
ACDB_RECOMPOSE_DATA
350
1E5
  3
AcDbVariableDictionary
350
1A5
  0
DICTIONARY
  5
1A3
330
8
100
AcDbDictionary
280
     1
281
     1
  3
ACAD_XREC_ROUNDTRIP
360
1A4
  0
DICTIONARY
  5
1E8
102
{ACAD_REACTORS
330
C
102
}
330
C
100
AcDbDictionary
281
     1
  0
DICTIONARY
  5
D
102
{ACAD_REACTORS
330
C
102
}
330
C
100
AcDbDictionary
281
     1
  0
DICTIONARY
  5
1A
102
{ACAD_REACTORS
330
C
102
}
330
C
100
AcDbDictionary
281
     1
  3
Layout1
350
1E
  3
Layout2
350
26
  3
Model
350
22
  0
DICTIONARY
  5
43
102
{ACAD_REACTORS
330
C
102
}
330
C
100
AcDbDictionary
281
     1
  3
ByBlock
350
45
  3
ByLayer
350
44
  3
Global
350
46
  0
DICTIONARY
  5
6B
102
{ACAD_REACTORS
330
C
102
}
330
C
100
AcDbDictionary
281
     1
  3
Standard
350
6C
  0
DICTIONARY
  5
17
102
{ACAD_REACTORS
330
C
102
}
330
C
100
AcDbDictionary
281
     1
  3
Standard
350
18
  0
DICTIONARY
  5
19
102
{ACAD_REACTORS
330
C
102
}
330
C
100
AcDbDictionary
281
     1
  0
ACDBDICTIONARYWDFLT
  5
E
102
{ACAD_REACTORS
330
C
102
}
330
C
100
AcDbDictionary
281
     1
  3
Normal
350
F
100
AcDbDictionaryWithDefault
340
F
  0
DICTIONARY
  5
47
102
{ACAD_REACTORS
330
C
102
}
330
C
100
AcDbDictionary
281
     1
  3
A0
350
48
  3
A1
350
49
  3
A2
350
4A
  3
A3
350
4B
  3
A4
350
4C
  3
A5
350
4D
  3
A6
350
4E
  3
A7
350
4F
  3
A8
350
50
  3
A9
350
51
  3
B0
350
52
  3
B1
350
53
  3
B2
350
54
  3
B3
350
55
  3
B4
350
56
  3
B5
350
57
  3
B6
350
58
  3
B7
350
59
  3
B8
350
5A
  3
B9
350
5B
  3
C0
350
5C
  3
C1
350
5D
  3
C2
350
5E
  3
C3
350
5F
  3
C4
350
60
  3
C5
350
61
  3
C6
350
62
  3
C7
350
63
  3
C8
350
64
  3
C9
350
65
  3
D0
350
66
  3
D1
350
67
  3
D2
350
68
  0
DICTIONARY
  5
1E9
102
{ACAD_REACTORS
330
C
102
}
330
C
100
AcDbDictionary
281
     1
  0
DICTIONARY
  5
69
102
{ACAD_REACTORS
330
C
102
}
330
C
100
AcDbDictionary
281
     1
  3
Standard
350
6A
  0
DICTIONARY
  5
2A
102
{ACAD_REACTORS
330
C
102
}
330
C
100
AcDbDictionary
281
     1
  3
2dWireframe
350
2F
  3
Basic
350
32
  3
Brighten
350
36
  3
ColorChange
350
3A
  3
Conceptual
350
34
  3
Dim
350
35
  3
EdgeColorOff
350
3D
  3
Facepattern
350
39
  3
Flat
350
2B
  3
FlatWithEdges
350
2C
  3
Gouraud
350
2D
  3
GouraudWithEdges
350
2E
  3
Hidden
350
31
  3
JitterOff
350
3B
  3
Linepattern
350
38
  3
OverhangOff
350
3C
  3
Realistic
350
33
  3
Shaded
350
42
  3
Shaded with edges
350
41
  3
Shades of Gray
350
3E
  3
Sketchy
350
3F
  3
Thicken
350
37
  3
Wireframe
350
30
  3
X-Ray
350
40
  0
XRECORD
  5
1E5
102
{ACAD_REACTORS
330
C
102
}
330
C
100
AcDbXrecord
280
     1
 90
        1
330
6A
  0
DICTIONARY
  5
1A5
102
{ACAD_REACTORS
330
C
102
}
330
C
100
AcDbDictionary
281
     1
  3
CANNOSCALE
350
1A6
  3
CMLEADERSTYLE
350
1E7
  3
CTABLESTYLE
350
1E6
  3
MSLTSCALE
350
1A7
  3
XCLIPFRAME
350
1A8
  0
XRECORD
  5
1A4
102
{ACAD_REACTORS
330
1A3
102
}
330
1A3
100
AcDbXrecord
280
     1
102
VTR_0.000_0.000_1.000_1.000_VISUALSTYLE
340
2F
102
VTR_0.000_0.000_1.000_1.000_GRIDDISPLAY
 70
     3
102
VTR_0.000_0.000_1.000_1.000_GRIDMAJOR
 70
     5
102
VTR_0.000_0.000_1.000_1.000_DEFAULTLIGHTING
280
     1
102
VTR_0.000_0.000_1.000_1.000_DEFAULTLIGHTINGTYPE
 70
     1
102
VTR_0.000_0.000_1.000_1.000_BRIGHTNESS
141
0.0
102
VTR_0.000_0.000_1.000_1.000_CONTRAST
142
0.0
102
VTR_0.000_0.000_0.500_1.000_VISUALSTYLE
340
2F
102
VTR_0.000_0.000_0.500_1.000_GRIDDISPLAY
 70
     3
102
VTR_0.000_0.000_0.500_1.000_GRIDMAJOR
 70
     5
102
VTR_0.000_0.000_0.500_1.000_DEFAULTLIGHTING
280
     1
102
VTR_0.000_0.000_0.500_1.000_DEFAULTLIGHTINGTYPE
 70
     1
102
VTR_0.000_0.000_0.500_1.000_BRIGHTNESS
141
0.0
102
VTR_0.000_0.000_0.500_1.000_CONTRAST
142
0.0
102
VTR_0.500_0.000_1.000_1.000_VISUALSTYLE
340
2F
102
VTR_0.500_0.000_1.000_1.000_GRIDDISPLAY
 70
     3
102
VTR_0.500_0.000_1.000_1.000_GRIDMAJOR
 70
     5
102
VTR_0.500_0.000_1.000_1.000_DEFAULTLIGHTING
280
     1
102
VTR_0.500_0.000_1.000_1.000_DEFAULTLIGHTINGTYPE
 70
     1
102
VTR_0.500_0.000_1.000_1.000_BRIGHTNESS
141
0.0
102
VTR_0.500_0.000_1.000_1.000_CONTRAST
142
0.0
102
VTR_0.000_0.500_1.000_1.000_VISUALSTYLE
340
2F
102
VTR_0.000_0.500_1.000_1.000_GRIDDISPLAY
 70
     3
102
VTR_0.000_0.500_1.000_1.000_GRIDMAJOR
 70
     5
102
VTR_0.000_0.500_1.000_1.000_DEFAULTLIGHTING
280
     1
102
VTR_0.000_0.500_1.000_1.000_DEFAULTLIGHTINGTYPE
 70
     1
102
VTR_0.000_0.500_1.000_1.000_BRIGHTNESS
141
0.0
102
VTR_0.000_0.500_1.000_1.000_CONTRAST
142
0.0
102
VTR_0.000_0.000_1.000_0.500_VISUALSTYLE
340
2F
102
VTR_0.000_0.000_1.000_0.500_GRIDDISPLAY
 70
     3
102
VTR_0.000_0.000_1.000_0.500_GRIDMAJOR
 70
     5
102
VTR_0.000_0.000_1.000_0.500_DEFAULTLIGHTING
280
     1
102
VTR_0.000_0.000_1.000_0.500_DEFAULTLIGHTINGTYPE
 70
     1
102
VTR_0.000_0.000_1.000_0.500_BRIGHTNESS
141
0.0
102
VTR_0.000_0.000_1.000_0.500_CONTRAST
142
0.0
102
VTR_0.000_0.500_0.500_1.000_VISUALSTYLE
340
2F
102
VTR_0.000_0.500_0.500_1.000_GRIDDISPLAY
 70
     3
102
VTR_0.000_0.500_0.500_1.000_GRIDMAJOR
 70
     5
102
VTR_0.000_0.500_0.500_1.000_DEFAULTLIGHTING
280
     1
102
VTR_0.000_0.500_0.500_1.000_DEFAULTLIGHTINGTYPE
 70
     1
102
VTR_0.000_0.500_0.500_1.000_BRIGHTNESS
141
0.0
102
VTR_0.000_0.500_0.500_1.000_CONTRAST
142
0.0
102
VTR_0.000_0.000_0.500_0.500_VISUALSTYLE
340
2F
102
VTR_0.000_0.000_0.500_0.500_GRIDDISPLAY
 70
     3
102
VTR_0.000_0.000_0.500_0.500_GRIDMAJOR
 70
     5
102
VTR_0.000_0.000_0.500_0.500_DEFAULTLIGHTING
280
     1
102
VTR_0.000_0.000_0.500_0.500_DEFAULTLIGHTINGTYPE
 70
     1
102
VTR_0.000_0.000_0.500_0.500_BRIGHTNESS
141
0.0
102
VTR_0.000_0.000_0.500_0.500_CONTRAST
142
0.0
102
VTR_0.500_0.000_1.000_0.500_VISUALSTYLE
340
2F
102
VTR_0.500_0.000_1.000_0.500_GRIDDISPLAY
 70
     3
102
VTR_0.500_0.000_1.000_0.500_GRIDMAJOR
 70
     5
102
VTR_0.500_0.000_1.000_0.500_DEFAULTLIGHTING
280
     1
102
VTR_0.500_0.000_1.000_0.500_DEFAULTLIGHTINGTYPE
 70
     1
102
VTR_0.500_0.000_1.000_0.500_BRIGHTNESS
141
0.0
102
VTR_0.500_0.000_1.000_0.500_CONTRAST
142
0.0
102
VTR_0.500_0.500_1.000_1.000_VISUALSTYLE
340
2F
102
VTR_0.500_0.500_1.000_1.000_GRIDDISPLAY
 70
     3
102
VTR_0.500_0.500_1.000_1.000_GRIDMAJOR
 70
     5
102
VTR_0.500_0.500_1.000_1.000_DEFAULTLIGHTING
280
     1
102
VTR_0.500_0.500_1.000_1.000_DEFAULTLIGHTINGTYPE
 70
     1
102
VTR_0.500_0.500_1.000_1.000_BRIGHTNESS
141
0.0
102
VTR_0.500_0.500_1.000_1.000_CONTRAST
142
0.0
102
VTR_0.000_0.500_0.333_1.000_VISUALSTYLE
340
2F
102
VTR_0.000_0.500_0.333_1.000_GRIDDISPLAY
 70
     3
102
VTR_0.000_0.500_0.333_1.000_GRIDMAJOR
 70
     5
102
VTR_0.000_0.500_0.333_1.000_DEFAULTLIGHTING
280
     1
102
VTR_0.000_0.500_0.333_1.000_DEFAULTLIGHTINGTYPE
 70
     1
102
VTR_0.000_0.500_0.333_1.000_BRIGHTNESS
141
0.0
102
VTR_0.000_0.500_0.333_1.000_CONTRAST
142
0.0
102
VTR_0.000_0.000_0.333_0.500_VISUALSTYLE
340
2F
102
VTR_0.000_0.000_0.333_0.500_GRIDDISPLAY
 70
     3
102
VTR_0.000_0.000_0.333_0.500_GRIDMAJOR
 70
     5
102
VTR_0.000_0.000_0.333_0.500_DEFAULTLIGHTING
280
     1
102
VTR_0.000_0.000_0.333_0.500_DEFAULTLIGHTINGTYPE
 70
     1
102
VTR_0.000_0.000_0.333_0.500_BRIGHTNESS
141
0.0
102
VTR_0.000_0.000_0.333_0.500_CONTRAST
142
0.0
102
VTR_0.333_0.500_0.667_1.000_VISUALSTYLE
340
2F
102
VTR_0.333_0.500_0.667_1.000_GRIDDISPLAY
 70
     3
102
VTR_0.333_0.500_0.667_1.000_GRIDMAJOR
 70
     5
102
VTR_0.333_0.500_0.667_1.000_DEFAULTLIGHTING
280
     1
102
VTR_0.333_0.500_0.667_1.000_DEFAULTLIGHTINGTYPE
 70
     1
102
VTR_0.333_0.500_0.667_1.000_BRIGHTNESS
141
0.0
102
VTR_0.333_0.500_0.667_1.000_CONTRAST
142
0.0
102
VTR_0.333_0.000_0.667_0.500_VISUALSTYLE
340
2F
102
VTR_0.333_0.000_0.667_0.500_GRIDDISPLAY
 70
     3
102
VTR_0.333_0.000_0.667_0.500_GRIDMAJOR
 70
     5
102
VTR_0.333_0.000_0.667_0.500_DEFAULTLIGHTING
280
     1
102
VTR_0.333_0.000_0.667_0.500_DEFAULTLIGHTINGTYPE
 70
     1
102
VTR_0.333_0.000_0.667_0.500_BRIGHTNESS
141
0.0
102
VTR_0.333_0.000_0.667_0.500_CONTRAST
142
0.0
102
VTR_0.667_0.500_1.000_1.000_VISUALSTYLE
340
2F
102
VTR_0.667_0.500_1.000_1.000_GRIDDISPLAY
 70
     3
102
VTR_0.667_0.500_1.000_1.000_GRIDMAJOR
 70
     5
102
VTR_0.667_0.500_1.000_1.000_DEFAULTLIGHTING
280
     1
102
VTR_0.667_0.500_1.000_1.000_DEFAULTLIGHTINGTYPE
 70
     1
102
VTR_0.667_0.500_1.000_1.000_BRIGHTNESS
141
0.0
102
VTR_0.667_0.500_1.000_1.000_CONTRAST
142
0.0
102
VTR_0.667_0.000_1.000_0.500_VISUALSTYLE
340
2F
102
VTR_0.667_0.000_1.000_0.500_GRIDDISPLAY
 70
     3
102
VTR_0.667_0.000_1.000_0.500_GRIDMAJOR
 70
     5
102
VTR_0.667_0.000_1.000_0.500_DEFAULTLIGHTING
280
     1
102
VTR_0.667_0.000_1.000_0.500_DEFAULTLIGHTINGTYPE
 70
     1
102
VTR_0.667_0.000_1.000_0.500_BRIGHTNESS
141
0.0
102
VTR_0.667_0.000_1.000_0.500_CONTRAST
142
0.0
  0
LAYOUT
  5
1E
102
{ACAD_REACTORS
330
1A
102
}
330
1A
100
AcDbPlotSettings
  1

  2
none_device
  4

  6

 40
0.0
 41
0.0
 42
0.0
 43
0.0
 44
0.0
 45
0.0
 46
0.0
 47
0.0
 48
0.0
 49
0.0
140
0.0
141
0.0
142
1.0
143
1.0
 70
   688
 72
     0
 73
     0
 74
     5
  7

 75
    16
 76
     0
 77
     2
 78
   300
147
1.0
148
0.0
149
0.0
100
AcDbLayout
  1
Layout1
 70
     1
 71
     1
 10
-0.5
 20
-0.5
 11
5.0
 21
5.0
 12
0.0
 22
0.0
 32
0.0
 14
-0.5
 24
-0.5
 34
-0.5
 15
5.0
 25
5.0
 35
5.0
146
0.0
 13
0.0
 23
0.0
 33
0.0
 16
1.0
 26
0.0
 36
0.0
 17
0.0
 27
1.0
 37
0.0
 76
     0
330
1B
  0
LAYOUT
  5
26
102
{ACAD_REACTORS
330
1A
102
}
330
1A
100
AcDbPlotSettings
  1

  2
none_device
  4

  6

 40
0.0
 41
0.0
 42
0.0
 43
0.0
 44
0.0
 45
0.0
 46
0.0
 47
0.0
 48
0.0
 49
0.0
140
0.0
141
0.0
142
1.0
143
1.0
 70
   688
 72
     0
 73
     0
 74
     5
  7

 75
    16
 76
     0
 77
     2
 78
   300
147
1.0
148
0.0
149
0.0
100
AcDbLayout
  1
Layout2
 70
     1
 71
     2
 10
0.0
 20
0.0
 11
0.0
 21
0.0
 12
0.0
 22
0.0
 32
0.0
 14
0.0
 24
0.0
 34
0.0
 15
0.0
 25
0.0
 35
0.0
146
0.0
 13
0.0
 23
0.0
 33
0.0
 16
1.0
 26
0.0
 36
0.0
 17
0.0
 27
1.0
 37
0.0
 76
     0
330
23
  0
LAYOUT
  5
22
102
{ACAD_REACTORS
330
1A
102
}
330
1A
100
AcDbPlotSettings
  1

  2
none_device
  4
Letter_(8.50_x_11.00_Inches)
  6

 40
6.35
 41
6.35
 42
6.350005
 43
6.350005
 44
215.9
 45
279.4
 46
0.0
 47
0.0
 48
0.0
 49
0.0
140
0.0
141
0.0
142
1.0
143
1.0
 70
  1712
 72
     0
 73
     0
 74
     0
  7

 75
     0
 76
     0
 77
     2
 78
   300
147
1.0
148
0.0
149
0.0
100
AcDbLayout
  1
Model
 70
     1
 71
     0
 10
-0.5
 20
-0.5
 11
5.0
 21
5.0
 12
0.0
 22
0.0
 32
0.0
 14
-0.5
 24
-0.5
 34
-0.5
 15
5.0
 25
5.0
 35
5.0
146
0.0
 13
0.0
 23
0.0
 33
0.0
 16
1.0
 26
0.0
 36
0.0
 17
0.0
 27
1.0
 37
0.0
 76
     0
330
1F
331
29
  0
MATERIAL
  5
45
102
{ACAD_REACTORS
330
43
102
}
102
{ACAD_XDICTIONARY
360
1DB
102
}
330
43
100
AcDbMaterial
  1
ByBlock
  0
MATERIAL
  5
44
102
{ACAD_REACTORS
330
43
102
}
102
{ACAD_XDICTIONARY
360
1D9
102
}
330
43
100
AcDbMaterial
  1
ByLayer
  0
MATERIAL
  5
46
102
{ACAD_REACTORS
330
43
102
}
102
{ACAD_XDICTIONARY
360
1DD
102
}
330
43
100
AcDbMaterial
  1
Global
  0
MLEADERSTYLE
  5
6C
102
{ACAD_REACTORS
330
6B
102
}
102
{ACAD_XDICTIONARY
360
1E3
102
}
330
6B
100
AcDbMLeaderStyle
170
     2
171
     1
172
     0
 90
        2
 40
0.0
 41
0.0
173
     1
 91
-1056964608
340
14
 92
       -2
290
     1
 42
0.09
291
     1
 43
0.36
  3
Standard
341
0
 44
0.18
300

342
11
174
     1
178
     6
175
     1
176
     0
 93
-1056964608
 45
0.18
292
     0
297
     0
 46
0.18
343
0
 94
-1056964608
 47
1.0
 49
1.0
140
1.0
293
     1
141
0.0
294
     1
177
     0
142
1.0
295
     0
296
     0
143
0.125
1001
ACAD_MLEADERVER
1070
     2
  0
MLINESTYLE
  5
18
102
{ACAD_REACTORS
330
17
102
}
330
17
100
AcDbMlineStyle
  2
Standard
 70
     0
  3

 62
   256
 51
90.0
 52
90.0
 71
     2
 49
0.5
 62
   256
  6
BYLAYER
 49
-0.5
 62
   256
  6
BYLAYER
  0
ACDBPLACEHOLDER
  5
F
102
{ACAD_REACTORS
330
E
102
}
330
E
  0
SCALE
  5
48
102
{ACAD_REACTORS
330
47
102
}
330
47
100
AcDbScale
 70
     0
300
1:1
140
1.0
141
1.0
290
     1
  0
SCALE
  5
49
102
{ACAD_REACTORS
330
47
102
}
330
47
100
AcDbScale
 70
     0
300
1:2
140
1.0
141
2.0
290
     0
  0
SCALE
  5
4A
102
{ACAD_REACTORS
330
47
102
}
330
47
100
AcDbScale
 70
     0
300
1:4
140
1.0
141
4.0
290
     0
  0
SCALE
  5
4B
102
{ACAD_REACTORS
330
47
102
}
330
47
100
AcDbScale
 70
     0
300
1:5
140
1.0
141
5.0
290
     0
  0
SCALE
  5
4C
102
{ACAD_REACTORS
330
47
102
}
330
47
100
AcDbScale
 70
     0
300
1:8
140
1.0
141
8.0
290
     0
  0
SCALE
  5
4D
102
{ACAD_REACTORS
330
47
102
}
330
47
100
AcDbScale
 70
     0
300
1:10
140
1.0
141
10.0
290
     0
  0
SCALE
  5
4E
102
{ACAD_REACTORS
330
47
102
}
330
47
100
AcDbScale
 70
     0
300
1:16
140
1.0
141
16.0
290
     0
  0
SCALE
  5
4F
102
{ACAD_REACTORS
330
47
102
}
330
47
100
AcDbScale
 70
     0
300
1:20
140
1.0
141
20.0
290
     0
  0
SCALE
  5
50
102
{ACAD_REACTORS
330
47
102
}
330
47
100
AcDbScale
 70
     0
300
1:30
140
1.0
141
30.0
290
     0
  0
SCALE
  5
51
102
{ACAD_REACTORS
330
47
102
}
330
47
100
AcDbScale
 70
     0
300
1:40
140
1.0
141
40.0
290
     0
  0
SCALE
  5
52
102
{ACAD_REACTORS
330
47
102
}
330
47
100
AcDbScale
 70
     0
300
1:50
140
1.0
141
50.0
290
     0
  0
SCALE
  5
53
102
{ACAD_REACTORS
330
47
102
}
330
47
100
AcDbScale
 70
     0
300
1:100
140
1.0
141
100.0
290
     0
  0
SCALE
  5
54
102
{ACAD_REACTORS
330
47
102
}
330
47
100
AcDbScale
 70
     0
300
2:1
140
2.0
141
1.0
290
     0
  0
SCALE
  5
55
102
{ACAD_REACTORS
330
47
102
}
330
47
100
AcDbScale
 70
     0
300
4:1
140
4.0
141
1.0
290
     0
  0
SCALE
  5
56
102
{ACAD_REACTORS
330
47
102
}
330
47
100
AcDbScale
 70
     0
300
8:1
140
8.0
141
1.0
290
     0
  0
SCALE
  5
57
102
{ACAD_REACTORS
330
47
102
}
330
47
100
AcDbScale
 70
     0
300
10:1
140
10.0
141
1.0
290
     0
  0
SCALE
  5
58
102
{ACAD_REACTORS
330
47
102
}
330
47
100
AcDbScale
 70
     0
300
100:1
140
100.0
141
1.0
290
     0
  0
SCALE
  5
59
102
{ACAD_REACTORS
330
47
102
}
330
47
100
AcDbScale
 70
     0
300
1/128" = 1'-0"
140
0.007812
141
12.0
290
     0
  0
SCALE
  5
5A
102
{ACAD_REACTORS
330
47
102
}
330
47
100
AcDbScale
 70
     0
300
1/64" = 1'-0"
140
0.015625
141
12.0
290
     0
  0
SCALE
  5
5B
102
{ACAD_REACTORS
330
47
102
}
330
47
100
AcDbScale
 70
     0
300
1/32" = 1'-0"
140
0.03125
141
12.0
290
     0
  0
SCALE
  5
5C
102
{ACAD_REACTORS
330
47
102
}
330
47
100
AcDbScale
 70
     0
300
1/16" = 1'-0"
140
0.0625
141
12.0
290
     0
  0
SCALE
  5
5D
102
{ACAD_REACTORS
330
47
102
}
330
47
100
AcDbScale
 70
     0
300
3/32" = 1'-0"
140
0.09375
141
12.0
290
     0
  0
SCALE
  5
5E
102
{ACAD_REACTORS
330
47
102
}
330
47
100
AcDbScale
 70
     0
300
1/8" = 1'-0"
140
0.125
141
12.0
290
     0
  0
SCALE
  5
5F
102
{ACAD_REACTORS
330
47
102
}
330
47
100
AcDbScale
 70
     0
300
3/16" = 1'-0"
140
0.1875
141
12.0
290
     0
  0
SCALE
  5
60
102
{ACAD_REACTORS
330
47
102
}
330
47
100
AcDbScale
 70
     0
300
1/4" = 1'-0"
140
0.25
141
12.0
290
     0
  0
SCALE
  5
61
102
{ACAD_REACTORS
330
47
102
}
330
47
100
AcDbScale
 70
     0
300
3/8" = 1'-0"
140
0.375
141
12.0
290
     0
  0
SCALE
  5
62
102
{ACAD_REACTORS
330
47
102
}
330
47
100
AcDbScale
 70
     0
300
1/2" = 1'-0"
140
0.5
141
12.0
290
     0
  0
SCALE
  5
63
102
{ACAD_REACTORS
330
47
102
}
330
47
100
AcDbScale
 70
     0
300
3/4" = 1'-0"
140
0.75
141
12.0
290
     0
  0
SCALE
  5
64
102
{ACAD_REACTORS
330
47
102
}
330
47
100
AcDbScale
 70
     0
300
1" = 1'-0"
140
1.0
141
12.0
290
     0
  0
SCALE
  5
65
102
{ACAD_REACTORS
330
47
102
}
330
47
100
AcDbScale
 70
     0
300
1-1/2" = 1'-0"
140
1.5
141
12.0
290
     0
  0
SCALE
  5
66
102
{ACAD_REACTORS
330
47
102
}
330
47
100
AcDbScale
 70
     0
300
3" = 1'-0"
140
3.0
141
12.0
290
     0
  0
SCALE
  5
67
102
{ACAD_REACTORS
330
47
102
}
330
47
100
AcDbScale
 70
     0
300
6" = 1'-0"
140
6.0
141
12.0
290
     0
  0
SCALE
  5
68
102
{ACAD_REACTORS
330
47
102
}
330
47
100
AcDbScale
 70
     0
300
1'-0" = 1'-0"
140
12.0
141
12.0
290
     0
  0
TABLESTYLE
  5
6A
102
{ACAD_REACTORS
330
69
102
}
102
{ACAD_XDICTIONARY
360
1DF
102
}
330
69
100
AcDbTableStyle
  3
Standard
 70
     0
 71
     0
 40
0.06
 41
0.06
280
     0
281
     0
  7
Standard
140
0.18
170
     2
 62
     0
 63
   257
283
     0
274
    -2
284
     1
 64
     0
275
    -2
285
     1
 65
     0
276
    -2
286
     1
 66
     0
277
    -2
287
     1
 67
     0
278
    -2
288
     1
 68
     0
279
    -2
289
     1
 69
     0
  7
Standard
140
0.25
170
     5
 62
     0
 63
   257
283
     0
274
    -2
284
     1
 64
     0
275
    -2
285
     1
 65
     0
276
    -2
286
     1
 66
     0
277
    -2
287
     1
 67
     0
278
    -2
288
     1
 68
     0
279
    -2
289
     1
 69
     0
  7
Standard
140
0.18
170
     5
 62
     0
 63
   257
283
     0
274
    -2
284
     1
 64
     0
275
    -2
285
     1
 65
     0
276
    -2
286
     1
 66
     0
277
    -2
287
     1
 67
     0
278
    -2
288
     1
 68
     0
279
    -2
289
     1
 69
     0
  0
VISUALSTYLE
  5
2F
102
{ACAD_REACTORS
330
2A
102
}
102
{ACAD_XDICTIONARY
360
1B1
102
}
330
2A
100
AcDbVisualStyle
  2
2dWireframe
 70
     4
 71
     0
 72
     2
 73
     0
 90
        0
 40
0.6
 41
30.0
 62
     5
 63
     7
421
 16777215
 74
     1
 91
        4
 64
     7
 65
   257
 75
     1
175
     1
 42
1.0
 92
        0
 66
   257
 43
1.0
 76
     1
 77
     6
 78
     2
 67
     7
 79
     5
170
     0
171
     0
290
     0
174
     0
 93
        1
 44
0.0
173
     0
291
     0
 45
0.0
1001
ACAD
1000
AcDbSavedByObjectVersion
1070
     0
  0
VISUALSTYLE
  5
32
102
{ACAD_REACTORS
330
2A
102
}
102
{ACAD_XDICTIONARY
360
1B7
102
}
330
2A
100
AcDbVisualStyle
  2
Basic
 70
     7
 71
     1
 72
     0
 73
     1
 90
        0
 40
0.6
 41
30.0
 62
     5
 63
     7
421
 16777215
 74
     0
 91
        4
 64
     7
 65
   257
 75
     1
175
     1
 42
1.0
 92
        8
 66
     7
 43
1.0
 76
     1
 77
     6
 78
     2
 67
     7
 79
     5
170
     0
171
     0
290
     0
174
     0
 93
        1
 44
0.0
173
     0
291
     1
 45
0.0
1001
ACAD
1000
AcDbSavedByObjectVersion
1070
     0
  0
VISUALSTYLE
  5
36
102
{ACAD_REACTORS
330
2A
102
}
102
{ACAD_XDICTIONARY
360
1BF
102
}
330
2A
100
AcDbVisualStyle
  2
Brighten
 70
    12
 71
     2
 72
     2
 73
     0
 90
        0
 40
0.6
 41
30.0
 62
     5
 63
     7
421
 16777215
 74
     1
 91
        4
 64
     7
 65
   257
 75
     1
175
     1
 42
1.0
 92
        8
 66
     7
 43
1.0
 76
     1
 77
     6
 78
     2
 67
     7
 79
     5
170
     0
171
     0
290
     0
174
     0
 93
        1
 44
50.0
173
     0
291
     1
 45
0.0
1001
ACAD
1000
AcDbSavedByObjectVersion
1070
     0
  0
VISUALSTYLE
  5
3A
102
{ACAD_REACTORS
330
2A
102
}
102
{ACAD_XDICTIONARY
360
1C7
102
}
330
2A
100
AcDbVisualStyle
  2
ColorChange
 70
    16
 71
     2
 72
     2
 73
     3
 90
        0
 40
0.6
 41
30.0
 62
     5
 63
     8
421
  8421504
 74
     1
 91
        4
 64
     7
 65
   257
 75
     1
175
     1
 42
1.0
 92
        8
 66
     8
424
  8421504
 43
1.0
 76
     1
 77
     6
 78
     2
 67
     7
 79
     5
170
     0
171
     0
290
     0
174
     0
 93
        1
 44
0.0
173
     0
291
     1
 45
0.0
1001
ACAD
1000
AcDbSavedByObjectVersion
1070
     0
  0
VISUALSTYLE
  5
34
102
{ACAD_REACTORS
330
2A
102
}
102
{ACAD_XDICTIONARY
360
1BB
102
}
330
2A
100
AcDbVisualStyle
  2
Conceptual
 70
     9
 71
     3
 72
     2
 73
     0
 90
        0
 40
0.6
 41
30.0
 62
     5
 63
     7
421
 16777215
 74
     2
 91
        2
 64
     7
 65
   257
 75
     1
175
     1
 42
179.0
 92
        8
 66
     7
 43
1.0
 76
     1
 77
     6
 78
     2
 67
     7
 79
     3
170
     0
171
     0
290
     0
174
     0
 93
        1
 44
0.0
173
     0
291
     0
 45
0.0
1001
ACAD
1000
AcDbSavedByObjectVersion
1070
     0
  0
VISUALSTYLE
  5
35
102
{ACAD_REACTORS
330
2A
102
}
102
{ACAD_XDICTIONARY
360
1BD
102
}
330
2A
100
AcDbVisualStyle
  2
Dim
 70
    11
 71
     2
 72
     2
 73
     0
 90
        0
 40
0.6
 41
30.0
 62
     5
 63
     7
421
 16777215
 74
     1
 91
        4
 64
     7
 65
   257
 75
     1
175
     1
 42
1.0
 92
        8
 66
     7
 43
1.0
 76
     1
 77
     6
 78
     2
 67
     7
 79
     5
170
     0
171
     0
290
     0
174
     0
 93
        1
 44
-50.0
173
     0
291
     1
 45
0.0
1001
ACAD
1000
AcDbSavedByObjectVersion
1070
     0
  0
VISUALSTYLE
  5
3D
102
{ACAD_REACTORS
330
2A
102
}
102
{ACAD_XDICTIONARY
360
1CD
102
}
330
2A
100
AcDbVisualStyle
  2
EdgeColorOff
 70
    22
 71
     2
 72
     2
 73
     0
 90
        0
 40
0.6
 41
30.0
 62
     5
 63
     7
421
 16777215
 74
     1
 91
        4
 64
     7
 65
   257
 75
     1
175
     1
 42
1.0
 92
        8
 66
     7
 43
1.0
 76
     1
 77
     6
 78
     2
 67
     7
 79
     5
170
     0
171
     0
290
     0
174
     0
 93
        1
 44
0.0
173
     0
291
     1
 45
0.0
1001
ACAD
1000
AcDbSavedByObjectVersion
1070
     0
  0
VISUALSTYLE
  5
39
102
{ACAD_REACTORS
330
2A
102
}
102
{ACAD_XDICTIONARY
360
1C5
102
}
330
2A
100
AcDbVisualStyle
  2
Facepattern
 70
    15
 71
     2
 72
     2
 73
     0
 90
        0
 40
0.6
 41
30.0
 62
     5
 63
     7
421
 16777215
 74
     1
 91
        4
 64
     7
 65
   257
 75
     1
175
     1
 42
1.0
 92
        8
 66
     7
 43
1.0
 76
     1
 77
     6
 78
     2
 67
     7
 79
     5
170
     0
171
     0
290
     0
174
     0
 93
        1
 44
0.0
173
     0
291
     1
 45
0.0
1001
ACAD
1000
AcDbSavedByObjectVersion
1070
     0
  0
VISUALSTYLE
  5
2B
102
{ACAD_REACTORS
330
2A
102
}
102
{ACAD_XDICTIONARY
360
1A9
102
}
330
2A
100
AcDbVisualStyle
  2
Flat
 70
     0
 71
     2
 72
     1
 73
     1
 90
        2
 40
0.6
 41
30.0
 62
     5
 63
     7
421
 16777215
 74
     0
 91
        0
 64
     7
 65
   257
 75
     1
175
     1
 42
1.0
 92
        8
 66
     7
 43
1.0
 76
     1
 77
     6
 78
     2
 67
     7
 79
     5
170
     0
171
     0
290
     0
174
     0
 93
       13
 44
0.0
173
     0
291
     1
 45
0.0
1001
ACAD
1000
AcDbSavedByObjectVersion
1070
     0
  0
VISUALSTYLE
  5
2C
102
{ACAD_REACTORS
330
2A
102
}
102
{ACAD_XDICTIONARY
360
1AB
102
}
330
2A
100
AcDbVisualStyle
  2
FlatWithEdges
 70
     1
 71
     2
 72
     1
 73
     1
 90
        2
 40
0.6
 41
30.0
 62
     5
 63
     7
421
 16777215
 74
     1
 91
        0
 64
     7
 65
   257
 75
     1
175
     1
 42
1.0
 92
        0
 66
   257
 43
1.0
 76
     1
 77
     6
 78
     2
 67
     7
 79
     5
170
     0
171
     0
290
     0
174
     0
 93
       13
 44
0.0
173
     0
291
     1
 45
0.0
1001
ACAD
1000
AcDbSavedByObjectVersion
1070
     0
  0
VISUALSTYLE
  5
2D
102
{ACAD_REACTORS
330
2A
102
}
102
{ACAD_XDICTIONARY
360
1AD
102
}
330
2A
100
AcDbVisualStyle
  2
Gouraud
 70
     2
 71
     2
 72
     2
 73
     1
 90
        2
 40
0.6
 41
30.0
 62
     5
 63
     7
421
 16777215
 74
     0
 91
        0
 64
     7
 65
   257
 75
     1
175
     1
 42
1.0
 92
        0
 66
     7
 43
1.0
 76
     1
 77
     6
 78
     2
 67
     7
 79
     5
170
     0
171
     0
290
     0
174
     0
 93
       13
 44
0.0
173
     0
291
     1
 45
0.0
1001
ACAD
1000
AcDbSavedByObjectVersion
1070
     0
  0
VISUALSTYLE
  5
2E
102
{ACAD_REACTORS
330
2A
102
}
102
{ACAD_XDICTIONARY
360
1AF
102
}
330
2A
100
AcDbVisualStyle
  2
GouraudWithEdges
 70
     3
 71
     2
 72
     2
 73
     1
 90
        2
 40
0.6
 41
30.0
 62
     5
 63
     7
421
 16777215
 74
     1
 91
        0
 64
     7
 65
   257
 75
     1
175
     1
 42
1.0
 92
        0
 66
   257
 43
1.0
 76
     1
 77
     6
 78
     2
 67
     7
 79
     5
170
     0
171
     0
290
     0
174
     0
 93
       13
 44
0.0
173
     0
291
     1
 45
0.0
1001
ACAD
1000
AcDbSavedByObjectVersion
1070
     0
  0
VISUALSTYLE
  5
31
102
{ACAD_REACTORS
330
2A
102
}
102
{ACAD_XDICTIONARY
360
1B5
102
}
330
2A
100
AcDbVisualStyle
  2
Hidden
 70
     6
 71
     1
 72
     2
 73
     2
 90
        0
 40
0.6
 41
30.0
 62
     5
 63
     7
421
 16777215
 74
     2
 91
        2
 64
     7
 65
   257
 75
     2
175
     1
 42
40.0
 92
        0
 66
   257
 43
1.0
 76
     1
 77
     6
 78
     2
 67
     7
 79
     3
170
     0
171
     0
290
     0
174
     0
 93
        1
 44
0.0
173
     0
291
     0
 45
0.0
1001
ACAD
1000
AcDbSavedByObjectVersion
1070
     0
  0
VISUALSTYLE
  5
3B
102
{ACAD_REACTORS
330
2A
102
}
102
{ACAD_XDICTIONARY
360
1C9
102
}
330
2A
100
AcDbVisualStyle
  2
JitterOff
 70
    20
 71
     2
 72
     2
 73
     0
 90
        0
 40
0.6
 41
30.0
 62
     5
 63
     7
421
 16777215
 74
     1
 91
        4
 64
     7
 65
   257
 75
     1
175
     1
 42
1.0
 92
       10
 66
     7
 43
1.0
 76
     1
 77
     6
 78
     2
 67
     7
 79
     5
170
     0
171
     0
290
     0
174
     0
 93
        1
 44
0.0
173
     0
291
     1
 45
0.0
1001
ACAD
1000
AcDbSavedByObjectVersion
1070
     0
  0
VISUALSTYLE
  5
38
102
{ACAD_REACTORS
330
2A
102
}
102
{ACAD_XDICTIONARY
360
1C3
102
}
330
2A
100
AcDbVisualStyle
  2
Linepattern
 70
    14
 71
     2
 72
     2
 73
     0
 90
        0
 40
0.6
 41
30.0
 62
     5
 63
     7
421
 16777215
 74
     1
 91
        4
 64
     7
 65
   257
 75
     7
175
     7
 42
1.0
 92
        8
 66
     7
 43
1.0
 76
     1
 77
     6
 78
     2
 67
     7
 79
     5
170
     0
171
     0
290
     0
174
     0
 93
        1
 44
0.0
173
     0
291
     1
 45
0.0
1001
ACAD
1000
AcDbSavedByObjectVersion
1070
     0
  0
VISUALSTYLE
  5
3C
102
{ACAD_REACTORS
330
2A
102
}
102
{ACAD_XDICTIONARY
360
1CB
102
}
330
2A
100
AcDbVisualStyle
  2
OverhangOff
 70
    21
 71
     2
 72
     2
 73
     0
 90
        0
 40
0.6
 41
30.0
 62
     5
 63
     7
421
 16777215
 74
     1
 91
        4
 64
     7
 65
   257
 75
     1
175
     1
 42
1.0
 92
        9
 66
     7
 43
1.0
 76
     1
 77
     6
 78
     2
 67
     7
 79
     5
170
     0
171
     0
290
     0
174
     0
 93
        1
 44
0.0
173
     0
291
     1
 45
0.0
1001
ACAD
1000
AcDbSavedByObjectVersion
1070
     0
  0
VISUALSTYLE
  5
33
102
{ACAD_REACTORS
330
2A
102
}
102
{ACAD_XDICTIONARY
360
1B9
102
}
330
2A
100
AcDbVisualStyle
  2
Realistic
 70
     8
 71
     2
 72
     3
 73
     0
 90
        2
 40
0.6
 41
30.0
 62
     5
 63
     7
421
 16777215
 74
     0
 91
        0
 64
     7
 65
   257
 75
     1
175
     1
 42
1.0
 92
        8
 66
   257
 43
1.0
 76
     1
 77
     6
 78
     2
 67
     7
 79
     3
170
     0
171
     0
290
     0
174
     0
 93
       13
 44
0.0
173
     0
291
     0
 45
0.0
1001
ACAD
1000
AcDbSavedByObjectVersion
1070
     0
  0
VISUALSTYLE
  5
42
102
{ACAD_REACTORS
330
2A
102
}
102
{ACAD_XDICTIONARY
360
1D7
102
}
330
2A
100
AcDbVisualStyle
  2
Shaded
 70
    27
 71
     2
 72
     2
 73
     1
 90
        2
 40
0.6
 41
30.0
 62
     5
 63
     7
421
 16777215
 74
     0
 91
        4
 64
     7
 65
   257
 75
     1
175
     1
 42
1.0
 92
        8
 66
   257
 43
1.0
 76
     1
 77
     6
 78
     2
 67
     8
425
  7895160
 79
     3
170
     0
171
     0
290
     0
174
     0
 93
        5
 44
0.0
173
     0
291
     0
 45
0.0
1001
ACAD
1000
AcDbSavedByObjectVersion
1070
     0
  0
VISUALSTYLE
  5
41
102
{ACAD_REACTORS
330
2A
102
}
102
{ACAD_XDICTIONARY
360
1D5
102
}
330
2A
100
AcDbVisualStyle
  2
Shaded with edges
 70
    26
 71
     2
 72
     2
 73
     1
 90
        2
 40
0.6
 41
30.0
 62
     5
 63
     7
421
 16777215
 74
     1
 91
       10
 64
     7
 65
   257
 75
     2
175
     1
 42
1.0
 92
        8
 66
   257
 43
1.0
 76
     1
 77
     6
 78
     2
 67
     7
 79
     3
170
     0
171
     0
290
     0
174
     0
 93
        5
 44
0.0
173
     0
291
     0
 45
0.0
1001
ACAD
1000
AcDbSavedByObjectVersion
1070
     0
  0
VISUALSTYLE
  5
3E
102
{ACAD_REACTORS
330
2A
102
}
102
{ACAD_XDICTIONARY
360
1CF
102
}
330
2A
100
AcDbVisualStyle
  2
Shades of Gray
 70
    23
 71
     2
 72
     2
 73
     3
 90
        0
 40
0.6
 41
30.0
 62
     5
 63
     7
421
 16777215
 74
     2
 91
        2
 64
     7
 65
     7
 75
     1
175
     1
 42
40.0
 92
        8
 66
     7
 43
1.0
 76
     1
 77
     6
 78
     2
 67
     7
 79
     3
170
     0
171
     0
290
     0
174
     0
 93
        1
 44
0.0
173
     0
291
     0
 45
0.0
1001
ACAD
1000
AcDbSavedByObjectVersion
1070
     0
  0
VISUALSTYLE
  5
3F
102
{ACAD_REACTORS
330
2A
102
}
102
{ACAD_XDICTIONARY
360
1D1
102
}
330
2A
100
AcDbVisualStyle
  2
Sketchy
 70
    24
 71
     1
 72
     2
 73
     2
 90
        0
 40
0.6
 41
30.0
 62
     5
 63
     7
421
 16777215
 74
     2
 91
        2
 64
     7
 65
     7
 75
     1
175
     1
 42
40.0
 92
       11
 66
     7
 43
1.0
 76
     1
 77
     6
 78
     2
 67
     7
 79
     6
170
     0
171
     0
290
     0
174
     0
 93
        1
 44
0.0
173
     0
291
     0
 45
0.0
1001
ACAD
1000
AcDbSavedByObjectVersion
1070
     0
  0
VISUALSTYLE
  5
37
102
{ACAD_REACTORS
330
2A
102
}
102
{ACAD_XDICTIONARY
360
1C1
102
}
330
2A
100
AcDbVisualStyle
  2
Thicken
 70
    13
 71
     2
 72
     2
 73
     0
 90
        0
 40
0.6
 41
30.0
 62
     5
 63
     7
421
 16777215
 74
     1
 91
        4
 64
     7
 65
   257
 75
     1
175
     1
 42
1.0
 92
       12
 66
     7
 43
1.0
 76
     1
 77
     6
 78
     2
 67
     7
 79
     5
170
     0
171
     0
290
     0
174
     0
 93
        1
 44
0.0
173
     0
291
     1
 45
0.0
1001
ACAD
1000
AcDbSavedByObjectVersion
1070
     0
  0
VISUALSTYLE
  5
30
102
{ACAD_REACTORS
330
2A
102
}
102
{ACAD_XDICTIONARY
360
1B3
102
}
330
2A
100
AcDbVisualStyle
  2
Wireframe
 70
     5
 71
     0
 72
     2
 73
     0
 90
        0
 40
0.6
 41
30.0
 62
     5
 63
     7
421
 16777215
 74
     1
 91
        4
 64
     7
 65
   257
 75
     1
175
     1
 42
1.0
 92
        0
 66
   257
 43
1.0
 76
     1
 77
     6
 78
     2
 67
     7
 79
     3
170
     0
171
     0
290
     0
174
     0
 93
        1
 44
0.0
173
     0
291
     0
 45
0.0
1001
ACAD
1000
AcDbSavedByObjectVersion
1070
     0
  0
VISUALSTYLE
  5
40
102
{ACAD_REACTORS
330
2A
102
}
102
{ACAD_XDICTIONARY
360
1D3
102
}
330
2A
100
AcDbVisualStyle
  2
X-Ray
 70
    25
 71
     2
 72
     2
 73
     1
 90
        1
 40
0.5
 41
30.0
 62
     5
 63
     7
421
 16777215
 74
     1
 91
        0
 64
     7
 65
   257
 75
     1
175
     1
 42
1.0
 92
        8
 66
     7
 43
1.0
 76
     1
 77
     6
 78
     2
 67
     7
 79
     3
170
     0
171
     0
290
     0
174
     0
 93
       13
 44
0.0
173
     0
291
     0
 45
0.0
1001
ACAD
1000
AcDbSavedByObjectVersion
1070
     0
  0
DICTIONARYVAR
  5
1A6
102
{ACAD_REACTORS
330
1A5
102
}
330
1A5
100
DictionaryVariables
280
     0
  1
1:1
  0
DICTIONARYVAR
  5
1E7
102
{ACAD_REACTORS
330
1A5
102
}
330
1A5
100
DictionaryVariables
280
     0
  1
Standard
  0
DICTIONARYVAR
  5
1E6
102
{ACAD_REACTORS
330
1A5
102
}
330
1A5
100
DictionaryVariables
280
     0
  1
Standard
  0
DICTIONARYVAR
  5
1A7
102
{ACAD_REACTORS
330
1A5
102
}
330
1A5
100
DictionaryVariables
280
     0
  1
1
  0
DICTIONARYVAR
  5
1A8
102
{ACAD_REACTORS
330
1A5
102
}
330
1A5
100
DictionaryVariables
280
     0
  1
2
  0
DICTIONARY
  5
1DB
330
45
100
AcDbDictionary
280
     1
281
     1
  3
ACAD_XREC_ROUNDTRIP
360
1DC
  0
DICTIONARY
  5
1D9
330
44
100
AcDbDictionary
280
     1
281
     1
  3
ACAD_XREC_ROUNDTRIP
360
1DA
  0
DICTIONARY
  5
1DD
330
46
100
AcDbDictionary
280
     1
281
     1
  3
ACAD_XREC_ROUNDTRIP
360
1DE
  0
DICTIONARY
  5
1E3
330
6C
100
AcDbDictionary
280
     1
281
     1
  3
ACAD_XREC_ROUNDTRIP
360
1E4
  0
DICTIONARY
  5
1DF
330
6A
100
AcDbDictionary
280
     1
281
     1
  3
ACAD_ROUNDTRIP_2008_TABLESTYLE_CELLSTYLEMAP
360
1E1
  3
ACAD_XREC_ROUNDTRIP
360
1E0
  0
DICTIONARY
  5
1B1
330
2F
100
AcDbDictionary
280
     1
281
     1
  3
ACAD_XREC_ROUNDTRIP
360
1B2
  0
DICTIONARY
  5
1B7
330
32
100
AcDbDictionary
280
     1
281
     1
  3
ACAD_XREC_ROUNDTRIP
360
1B8
  0
DICTIONARY
  5
1BF
330
36
100
AcDbDictionary
280
     1
281
     1
  3
ACAD_XREC_ROUNDTRIP
360
1C0
  0
DICTIONARY
  5
1C7
330
3A
100
AcDbDictionary
280
     1
281
     1
  3
ACAD_XREC_ROUNDTRIP
360
1C8
  0
DICTIONARY
  5
1BB
330
34
100
AcDbDictionary
280
     1
281
     1
  3
ACAD_XREC_ROUNDTRIP
360
1BC
  0
DICTIONARY
  5
1BD
330
35
100
AcDbDictionary
280
     1
281
     1
  3
ACAD_XREC_ROUNDTRIP
360
1BE
  0
DICTIONARY
  5
1CD
330
3D
100
AcDbDictionary
280
     1
281
     1
  3
ACAD_XREC_ROUNDTRIP
360
1CE
  0
DICTIONARY
  5
1C5
330
39
100
AcDbDictionary
280
     1
281
     1
  3
ACAD_XREC_ROUNDTRIP
360
1C6
  0
DICTIONARY
  5
1A9
330
2B
100
AcDbDictionary
280
     1
281
     1
  3
ACAD_XREC_ROUNDTRIP
360
1AA
  0
DICTIONARY
  5
1AB
330
2C
100
AcDbDictionary
280
     1
281
     1
  3
ACAD_XREC_ROUNDTRIP
360
1AC
  0
DICTIONARY
  5
1AD
330
2D
100
AcDbDictionary
280
     1
281
     1
  3
ACAD_XREC_ROUNDTRIP
360
1AE
  0
DICTIONARY
  5
1AF
330
2E
100
AcDbDictionary
280
     1
281
     1
  3
ACAD_XREC_ROUNDTRIP
360
1B0
  0
DICTIONARY
  5
1B5
330
31
100
AcDbDictionary
280
     1
281
     1
  3
ACAD_XREC_ROUNDTRIP
360
1B6
  0
DICTIONARY
  5
1C9
330
3B
100
AcDbDictionary
280
     1
281
     1
  3
ACAD_XREC_ROUNDTRIP
360
1CA
  0
DICTIONARY
  5
1C3
330
38
100
AcDbDictionary
280
     1
281
     1
  3
ACAD_XREC_ROUNDTRIP
360
1C4
  0
DICTIONARY
  5
1CB
330
3C
100
AcDbDictionary
280
     1
281
     1
  3
ACAD_XREC_ROUNDTRIP
360
1CC
  0
DICTIONARY
  5
1B9
330
33
100
AcDbDictionary
280
     1
281
     1
  3
ACAD_XREC_ROUNDTRIP
360
1BA
  0
DICTIONARY
  5
1D7
330
42
100
AcDbDictionary
280
     1
281
     1
  3
ACAD_XREC_ROUNDTRIP
360
1D8
  0
DICTIONARY
  5
1D5
330
41
100
AcDbDictionary
280
     1
281
     1
  3
ACAD_XREC_ROUNDTRIP
360
1D6
  0
DICTIONARY
  5
1CF
330
3E
100
AcDbDictionary
280
     1
281
     1
  3
ACAD_XREC_ROUNDTRIP
360
1D0
  0
DICTIONARY
  5
1D1
330
3F
100
AcDbDictionary
280
     1
281
     1
  3
ACAD_XREC_ROUNDTRIP
360
1D2
  0
DICTIONARY
  5
1C1
330
37
100
AcDbDictionary
280
     1
281
     1
  3
ACAD_XREC_ROUNDTRIP
360
1C2
  0
DICTIONARY
  5
1B3
330
30
100
AcDbDictionary
280
     1
281
     1
  3
ACAD_XREC_ROUNDTRIP
360
1B4
  0
DICTIONARY
  5
1D3
330
40
100
AcDbDictionary
280
     1
281
     1
  3
ACAD_XREC_ROUNDTRIP
360
1D4
  0
XRECORD
  5
1DC
102
{ACAD_REACTORS
330
1DB
102
}
330
1DB
100
AcDbXrecord
280
     1
102
MATERIAL
148
0.0
149
0.0
149
0.0
 93
        0
 94
      127
282
     0
 72
     1
 77
     1
171
     1
175
     1
179
     1
273
     0
  0
XRECORD
  5
1DA
102
{ACAD_REACTORS
330
1D9
102
}
330
1D9
100
AcDbXrecord
280
     1
102
MATERIAL
148
0.0
149
0.0
149
0.0
 93
        0
 94
      127
282
     0
 72
     1
 77
     1
171
     1
175
     1
179
     1
273
     0
  0
XRECORD
  5
1DE
102
{ACAD_REACTORS
330
1DD
102
}
330
1DD
100
AcDbXrecord
280
     1
102
MATERIAL
148
0.0
149
0.0
149
0.0
 93
        0
 94
      127
282
     0
 72
     1
 77
     1
171
     1
175
     1
179
     1
273
     0
  0
XRECORD
  5
1E4
102
{ACAD_REACTORS
330
1E3
102
}
330
1E3
100
AcDbXrecord
280
     1
102
ACAD_ROUNDTRIP_2010_MLEADER_STYLE
  0
CELLSTYLEMAP
  5
1E1
102
{ACAD_REACTORS
330
1DF
102
}
330
1DF
100
AcDbCellStyleMap
 90
        3
300
CELLSTYLE
  1
TABLEFORMAT_BEGIN
 90
        5
170
     1
 91
        0
 92
    32768
 62
   257
 93
        1
300
CONTENTFORMAT
  1
CONTENTFORMAT_BEGIN
 90
        0
 91
        0
 92
        4
 93
        0
300

 40
0.0
140
1.0
 94
        5
 62
     0
340
11
144
0.25
309
CONTENTFORMAT_END
171
     1
301
MARGIN
  1
CELLMARGIN_BEGIN
 40
0.06
 40
0.06
 40
0.06
 40
0.06
 40
0.06
 40
0.06
309
CELLMARGIN_END
 94
        6
 95
        1
302
GRIDFORMAT
  1
GRIDFORMAT_BEGIN
 90
        0
 91
        1
 62
     0
 92
       -2
340
14
 93
        0
 40
0.045
309
GRIDFORMAT_END
 95
        2
302
GRIDFORMAT
  1
GRIDFORMAT_BEGIN
 90
        0
 91
        1
 62
     0
 92
       -2
340
14
 93
        0
 40
0.045
309
GRIDFORMAT_END
 95
        4
302
GRIDFORMAT
  1
GRIDFORMAT_BEGIN
 90
        0
 91
        1
 62
     0
 92
       -2
340
14
 93
        0
 40
0.045
309
GRIDFORMAT_END
 95
        8
302
GRIDFORMAT
  1
GRIDFORMAT_BEGIN
 90
        0
 91
        1
 62
     0
 92
       -2
340
14
 93
        0
 40
0.045
309
GRIDFORMAT_END
 95
       16
302
GRIDFORMAT
  1
GRIDFORMAT_BEGIN
 90
        0
 91
        1
 62
     0
 92
       -2
340
14
 93
        0
 40
0.045
309
GRIDFORMAT_END
 95
       32
302
GRIDFORMAT
  1
GRIDFORMAT_BEGIN
 90
        0
 91
        1
 62
     0
 92
       -2
340
14
 93
        0
 40
0.045
309
GRIDFORMAT_END
309
TABLEFORMAT_END
  1
CELLSTYLE_BEGIN
 90
        1
 91
        1
300
_TITLE
309
CELLSTYLE_END
300
CELLSTYLE
  1
TABLEFORMAT_BEGIN
 90
        5
170
     1
 91
        0
 92
        0
 62
   257
 93
        1
300
CONTENTFORMAT
  1
CONTENTFORMAT_BEGIN
 90
        0
 91
        0
 92
        4
 93
        0
300

 40
0.0
140
1.0
 94
        5
 62
     0
340
11
144
0.18
309
CONTENTFORMAT_END
171
     1
301
MARGIN
  1
CELLMARGIN_BEGIN
 40
0.06
 40
0.06
 40
0.06
 40
0.06
 40
0.06
 40
0.06
309
CELLMARGIN_END
 94
        6
 95
        1
302
GRIDFORMAT
  1
GRIDFORMAT_BEGIN
 90
        0
 91
        1
 62
     0
 92
       -2
340
14
 93
        0
 40
0.045
309
GRIDFORMAT_END
 95
        2
302
GRIDFORMAT
  1
GRIDFORMAT_BEGIN
 90
        0
 91
        1
 62
     0
 92
       -2
340
14
 93
        0
 40
0.045
309
GRIDFORMAT_END
 95
        4
302
GRIDFORMAT
  1
GRIDFORMAT_BEGIN
 90
        0
 91
        1
 62
     0
 92
       -2
340
14
 93
        0
 40
0.045
309
GRIDFORMAT_END
 95
        8
302
GRIDFORMAT
  1
GRIDFORMAT_BEGIN
 90
        0
 91
        1
 62
     0
 92
       -2
340
14
 93
        0
 40
0.045
309
GRIDFORMAT_END
 95
       16
302
GRIDFORMAT
  1
GRIDFORMAT_BEGIN
 90
        0
 91
        1
 62
     0
 92
       -2
340
14
 93
        0
 40
0.045
309
GRIDFORMAT_END
 95
       32
302
GRIDFORMAT
  1
GRIDFORMAT_BEGIN
 90
        0
 91
        1
 62
     0
 92
       -2
340
14
 93
        0
 40
0.045
309
GRIDFORMAT_END
309
TABLEFORMAT_END
  1
CELLSTYLE_BEGIN
 90
        2
 91
        1
300
_HEADER
309
CELLSTYLE_END
300
CELLSTYLE
  1
TABLEFORMAT_BEGIN
 90
        5
170
     1
 91
        0
 92
        0
 62
   257
 93
        1
300
CONTENTFORMAT
  1
CONTENTFORMAT_BEGIN
 90
        0
 91
        0
 92
        4
 93
        0
300

 40
0.0
140
1.0
 94
        2
 62
     0
340
11
144
0.18
309
CONTENTFORMAT_END
171
     1
301
MARGIN
  1
CELLMARGIN_BEGIN
 40
0.06
 40
0.06
 40
0.06
 40
0.06
 40
0.06
 40
0.06
309
CELLMARGIN_END
 94
        6
 95
        1
302
GRIDFORMAT
  1
GRIDFORMAT_BEGIN
 90
        0
 91
        1
 62
     0
 92
       -2
340
14
 93
        0
 40
0.045
309
GRIDFORMAT_END
 95
        2
302
GRIDFORMAT
  1
GRIDFORMAT_BEGIN
 90
        0
 91
        1
 62
     0
 92
       -2
340
14
 93
        0
 40
0.045
309
GRIDFORMAT_END
 95
        4
302
GRIDFORMAT
  1
GRIDFORMAT_BEGIN
 90
        0
 91
        1
 62
     0
 92
       -2
340
14
 93
        0
 40
0.045
309
GRIDFORMAT_END
 95
        8
302
GRIDFORMAT
  1
GRIDFORMAT_BEGIN
 90
        0
 91
        1
 62
     0
 92
       -2
340
14
 93
        0
 40
0.045
309
GRIDFORMAT_END
 95
       16
302
GRIDFORMAT
  1
GRIDFORMAT_BEGIN
 90
        0
 91
        1
 62
     0
 92
       -2
340
14
 93
        0
 40
0.045
309
GRIDFORMAT_END
 95
       32
302
GRIDFORMAT
  1
GRIDFORMAT_BEGIN
 90
        0
 91
        1
 62
     0
 92
       -2
340
14
 93
        0
 40
0.045
309
GRIDFORMAT_END
309
TABLEFORMAT_END
  1
CELLSTYLE_BEGIN
 90
        3
 91
        2
300
_DATA
309
CELLSTYLE_END
  0
XRECORD
  5
1E0
102
{ACAD_REACTORS
330
1DF
102
}
330
1DF
100
AcDbXrecord
280
     1
102
ACAD_ROUNDTRIP_PRE2007_TABLESTYLE
 90
        4
 91
        0
  1

 92
        4
 93
        0
  2

 94
        4
 95
        0
  3

  0
XRECORD
  5
1B2
102
{ACAD_REACTORS
330
1B1
102
}
330
1B1
100
AcDbXrecord
280
     1
102
RTVSPropertyOp0
 70
     1
102
RTVSPropertyOp1
 70
     1
102
RTVSPropertyOp2
 70
     1
102
RTVSPropertyOp3
 70
     1
102
RTVSPropertyOp4
 70
     1
102
RTVSPropertyOp5
 70
     1
102
RTVSPropertyOp6
 70
     1
102
RTVSPropertyOp7
 70
     1
102
RTVSPropertyOp8
 70
     1
102
RTVSPropertyOp9
 70
     1
102
RTVSPropertyOp10
 70
     1
102
RTVSPropertyOp11
 70
     1
102
RTVSPropertyOp12
 70
     1
102
RTVSPropertyOp13
 70
     1
102
RTVSPropertyOp14
 70
     1
102
RTVSPropertyOp15
 70
     1
102
RTVSPropertyOp16
 70
     1
102
RTVSPropertyOp17
 70
     1
102
RTVSPropertyOp18
 70
     1
102
RTVSPropertyOp19
 70
     1
102
RTVSPropertyOp20
 70
     1
102
RTVSPropertyOp21
 70
     1
102
RTVSPropertyOp22
 70
     1
102
RTVSPropertyOp23
 70
     1
102
RTVSPropertyOp24
 70
     1
102
RTVSPropertyOp25
 70
     1
102
RTVSPropertyOp26
 70
     1
102
RTVSPropertyOp27
 70
     1
102
RTVSPropertyOp28
 70
     1
102
RTVSPropertyOp29
 70
     1
102
RTVSPropertyOp30
 70
     1
102
RTVSPropertyOp31
 70
     1
102
RTVSPropertyOp32
 70
     1
102
RTVSPropertyOp33
 70
     1
102
RTVSPropertyOp34
 70
     1
102
RTVSPropertyOp35
 70
     1
102
RTVSPropertyOp36
 70
     1
102
RTVSPropertyOp37
 70
     1
102
RTVSPropertyOp38
 70
     1
102
RTVSPropertyOp39
 70
     1
102
RTVSPropertyOp40
 70
     1
102
RTVSPropertyOp41
 70
     1
102
RTVSPropertyOp42
 70
     1
102
RTVSPropertyOp43
 70
     1
102
RTVSPropertyOp44
 70
     1
102
RTVSPropertyOp45
 70
     1
102
RTVSPropertyOp46
 70
     1
102
RTVSPropertyOp47
 70
     1
102
RTVSPropertyOp48
 70
     1
102
RTVSPropertyOp49
 70
     1
102
RTVSPropertyOp50
 70
     1
102
RTVSPropertyOp51
 70
     0
102
RTVSPropertyOp52
 70
     0
102
RTVSPropertyOp53
 70
     1
102
RTVSPropertyOp54
 70
     1
102
RTVSPropertyOp55
 70
     1
102
RTVSPropertyOp56
 70
     1
102
RTVSPropertyOp57
 70
     1
102
RTVSPost2010Prop28
280
     1
102
RTVSPost2010PropOp28
 70
     1
102
RTVSPost2010Prop29
280
     1
102
RTVSPost2010PropOp29
 70
     1
102
RTVSPost2010Prop30
280
     0
102
RTVSPost2010PropOp30
 70
     1
102
RTVSPost2010Prop31
280
     0
102
RTVSPost2010PropOp31
 70
     1
102
RTVSPost2010Prop32
280
     0
102
RTVSPost2010PropOp32
 70
     1
102
RTVSPost2010Prop33
280
     0
102
RTVSPost2010PropOp33
 70
     1
102
RTVSPost2010Prop34
280
     0
102
RTVSPost2010PropOp34
 70
     1
102
RTVSPost2010Prop35
280
     0
102
RTVSPost2010PropOp35
 70
     1
102
RTVSPost2010Prop36
280
     0
102
RTVSPost2010PropOp36
 70
     1
102
RTVSPost2010Prop37
 90
       50
102
RTVSPost2010PropOp37
 70
     1
102
RTVSPost2010Prop38
140
0.0
102
RTVSPost2010PropOp38
 70
     1
102
RTVSPost2010Prop39
140
1.0
102
RTVSPost2010PropOp39
 70
     1
102
RTVSPost2010Prop40
 90
        0
102
RTVSPost2010PropOp40
 70
     1
102
RTVSPost2010Prop41ColorIndex
 90
       18
102
RTVSPost2010Prop41ColorRGB
 90
        0
102
RTVSPost2010PropOp41
 70
     1
102
RTVSPost2010Prop42
 90
       50
102
RTVSPost2010PropOp42
 70
     1
102
RTVSPost2010Prop43
 90
        3
102
RTVSPost2010PropOp43
 70
     1
102
RTVSPost2010Prop44ColorIndex
 90
        5
102
RTVSPost2010Prop44ColorRGB
 90
      255
102
RTVSPost2010PropOp44
 70
     1
102
RTVSPost2010Prop45
280
     0
102
RTVSPost2010PropOp45
 70
     1
102
RTVSPost2010Prop46
 90
       50
102
RTVSPost2010PropOp46
 70
     1
102
RTVSPost2010Prop47
 90
       50
102
RTVSPost2010PropOp47
 70
     1
102
RTVSPost2010Prop48
 90
       50
102
RTVSPost2010PropOp48
 70
     1
102
RTVSPost2010Prop49
280
     0
102
RTVSPost2010PropOp49
 70
     1
102
RTVSPost2010Prop50
 90
       50
102
RTVSPost2010PropOp50
 70
     1
102
RTVSPost2010Prop51ColorIndex
 90
      256
102
RTVSPost2010Prop51ColorRGB
 90
-16777216
102
RTVSPost2010PropOp51
 70
     0
102
RTVSPost2010Prop52
140
1.0
102
RTVSPost2010PropOp52
 70
     0
102
RTVSPost2010Prop53
 90
        2
102
RTVSPost2010PropOp53
 70
     1
102
RTVSPost2010Prop54
  1
strokes_ogs.tif
102
RTVSPost2010PropOp54
 70
     1
102
RTVSPost2010Prop55
280
     0
102
RTVSPost2010PropOp55
 70
     1
102
RTVSPost2010Prop56
140
1.0
102
RTVSPost2010PropOp56
 70
     1
102
RTVSPost2010Prop57
140
1.0
102
RTVSPost2010PropOp57
 70
     1
  0
XRECORD
  5
1B8
102
{ACAD_REACTORS
330
1B7
102
}
330
1B7
100
AcDbXrecord
280
     1
102
RTVSPropertyOp0
 70
     1
102
RTVSPropertyOp1
 70
     1
102
RTVSPropertyOp2
 70
     1
102
RTVSPropertyOp3
 70
     1
102
RTVSPropertyOp4
 70
     1
102
RTVSPropertyOp5
 70
     1
102
RTVSPropertyOp6
 70
     1
102
RTVSPropertyOp7
 70
     1
102
RTVSPropertyOp8
 70
     1
102
RTVSPropertyOp9
 70
     1
102
RTVSPropertyOp10
 70
     1
102
RTVSPropertyOp11
 70
     1
102
RTVSPropertyOp12
 70
     1
102
RTVSPropertyOp13
 70
     1
102
RTVSPropertyOp14
 70
     1
102
RTVSPropertyOp15
 70
     1
102
RTVSPropertyOp16
 70
     1
102
RTVSPropertyOp17
 70
     1
102
RTVSPropertyOp18
 70
     1
102
RTVSPropertyOp19
 70
     1
102
RTVSPropertyOp20
 70
     1
102
RTVSPropertyOp21
 70
     1
102
RTVSPropertyOp22
 70
     1
102
RTVSPropertyOp23
 70
     1
102
RTVSPropertyOp24
 70
     1
102
RTVSPropertyOp25
 70
     1
102
RTVSPropertyOp26
 70
     1
102
RTVSPropertyOp27
 70
     1
102
RTVSPropertyOp28
 70
     1
102
RTVSPropertyOp29
 70
     1
102
RTVSPropertyOp30
 70
     1
102
RTVSPropertyOp31
 70
     1
102
RTVSPropertyOp32
 70
     1
102
RTVSPropertyOp33
 70
     1
102
RTVSPropertyOp34
 70
     1
102
RTVSPropertyOp35
 70
     1
102
RTVSPropertyOp36
 70
     1
102
RTVSPropertyOp37
 70
     1
102
RTVSPropertyOp38
 70
     1
102
RTVSPropertyOp39
 70
     1
102
RTVSPropertyOp40
 70
     1
102
RTVSPropertyOp41
 70
     1
102
RTVSPropertyOp42
 70
     1
102
RTVSPropertyOp43
 70
     1
102
RTVSPropertyOp44
 70
     1
102
RTVSPropertyOp45
 70
     1
102
RTVSPropertyOp46
 70
     1
102
RTVSPropertyOp47
 70
     1
102
RTVSPropertyOp48
 70
     1
102
RTVSPropertyOp49
 70
     1
102
RTVSPropertyOp50
 70
     1
102
RTVSPropertyOp51
 70
     0
102
RTVSPropertyOp52
 70
     0
102
RTVSPropertyOp53
 70
     1
102
RTVSPropertyOp54
 70
     1
102
RTVSPropertyOp55
 70
     1
102
RTVSPropertyOp56
 70
     1
102
RTVSPropertyOp57
 70
     1
102
RTVSPost2010Prop28
280
     0
102
RTVSPost2010PropOp28
 70
     1
102
RTVSPost2010Prop29
280
     1
102
RTVSPost2010PropOp29
 70
     1
102
RTVSPost2010Prop30
280
     1
102
RTVSPost2010PropOp30
 70
     1
102
RTVSPost2010Prop31
280
     0
102
RTVSPost2010PropOp31
 70
     1
102
RTVSPost2010Prop32
280
     0
102
RTVSPost2010PropOp32
 70
     1
102
RTVSPost2010Prop33
280
     0
102
RTVSPost2010PropOp33
 70
     1
102
RTVSPost2010Prop34
280
     0
102
RTVSPost2010PropOp34
 70
     1
102
RTVSPost2010Prop35
280
     0
102
RTVSPost2010PropOp35
 70
     1
102
RTVSPost2010Prop36
280
     0
102
RTVSPost2010PropOp36
 70
     1
102
RTVSPost2010Prop37
 90
       50
102
RTVSPost2010PropOp37
 70
     1
102
RTVSPost2010Prop38
140
0.0
102
RTVSPost2010PropOp38
 70
     1
102
RTVSPost2010Prop39
140
1.0
102
RTVSPost2010PropOp39
 70
     1
102
RTVSPost2010Prop40
 90
        0
102
RTVSPost2010PropOp40
 70
     1
102
RTVSPost2010Prop41ColorIndex
 90
       18
102
RTVSPost2010Prop41ColorRGB
 90
        0
102
RTVSPost2010PropOp41
 70
     1
102
RTVSPost2010Prop42
 90
       50
102
RTVSPost2010PropOp42
 70
     1
102
RTVSPost2010Prop43
 90
        3
102
RTVSPost2010PropOp43
 70
     1
102
RTVSPost2010Prop44ColorIndex
 90
        5
102
RTVSPost2010Prop44ColorRGB
 90
      255
102
RTVSPost2010PropOp44
 70
     1
102
RTVSPost2010Prop45
280
     0
102
RTVSPost2010PropOp45
 70
     1
102
RTVSPost2010Prop46
 90
       50
102
RTVSPost2010PropOp46
 70
     1
102
RTVSPost2010Prop47
 90
       50
102
RTVSPost2010PropOp47
 70
     1
102
RTVSPost2010Prop48
 90
       50
102
RTVSPost2010PropOp48
 70
     1
102
RTVSPost2010Prop49
280
     0
102
RTVSPost2010PropOp49
 70
     1
102
RTVSPost2010Prop50
 90
       50
102
RTVSPost2010PropOp50
 70
     1
102
RTVSPost2010Prop51ColorIndex
 90
      256
102
RTVSPost2010Prop51ColorRGB
 90
-16777216
102
RTVSPost2010PropOp51
 70
     0
102
RTVSPost2010Prop52
140
1.0
102
RTVSPost2010PropOp52
 70
     0
102
RTVSPost2010Prop53
 90
        2
102
RTVSPost2010PropOp53
 70
     1
102
RTVSPost2010Prop54
  1
strokes_ogs.tif
102
RTVSPost2010PropOp54
 70
     1
102
RTVSPost2010Prop55
280
     0
102
RTVSPost2010PropOp55
 70
     1
102
RTVSPost2010Prop56
140
1.0
102
RTVSPost2010PropOp56
 70
     1
102
RTVSPost2010Prop57
140
1.0
102
RTVSPost2010PropOp57
 70
     1
  0
XRECORD
  5
1C0
102
{ACAD_REACTORS
330
1BF
102
}
330
1BF
100
AcDbXrecord
280
     1
102
RTVSPropertyOp0
 70
     1
102
RTVSPropertyOp1
 70
     1
102
RTVSPropertyOp2
 70
     1
102
RTVSPropertyOp3
 70
     1
102
RTVSPropertyOp4
 70
     1
102
RTVSPropertyOp5
 70
     1
102
RTVSPropertyOp6
 70
     1
102
RTVSPropertyOp7
 70
     1
102
RTVSPropertyOp8
 70
     1
102
RTVSPropertyOp9
 70
     1
102
RTVSPropertyOp10
 70
     1
102
RTVSPropertyOp11
 70
     1
102
RTVSPropertyOp12
 70
     1
102
RTVSPropertyOp13
 70
     1
102
RTVSPropertyOp14
 70
     1
102
RTVSPropertyOp15
 70
     1
102
RTVSPropertyOp16
 70
     1
102
RTVSPropertyOp17
 70
     1
102
RTVSPropertyOp18
 70
     1
102
RTVSPropertyOp19
 70
     1
102
RTVSPropertyOp20
 70
     1
102
RTVSPropertyOp21
 70
     1
102
RTVSPropertyOp22
 70
     1
102
RTVSPropertyOp23
 70
     1
102
RTVSPropertyOp24
 70
     1
102
RTVSPropertyOp25
 70
     1
102
RTVSPropertyOp26
 70
     1
102
RTVSPropertyOp27
 70
     1
102
RTVSPropertyOp28
 70
     1
102
RTVSPropertyOp29
 70
     1
102
RTVSPropertyOp30
 70
     1
102
RTVSPropertyOp31
 70
     1
102
RTVSPropertyOp32
 70
     1
102
RTVSPropertyOp33
 70
     1
102
RTVSPropertyOp34
 70
     1
102
RTVSPropertyOp35
 70
     1
102
RTVSPropertyOp36
 70
     1
102
RTVSPropertyOp37
 70
     1
102
RTVSPropertyOp38
 70
     1
102
RTVSPropertyOp39
 70
     1
102
RTVSPropertyOp40
 70
     1
102
RTVSPropertyOp41
 70
     1
102
RTVSPropertyOp42
 70
     1
102
RTVSPropertyOp43
 70
     1
102
RTVSPropertyOp44
 70
     1
102
RTVSPropertyOp45
 70
     1
102
RTVSPropertyOp46
 70
     1
102
RTVSPropertyOp47
 70
     1
102
RTVSPropertyOp48
 70
     1
102
RTVSPropertyOp49
 70
     1
102
RTVSPropertyOp50
 70
     1
102
RTVSPropertyOp51
 70
     0
102
RTVSPropertyOp52
 70
     0
102
RTVSPropertyOp53
 70
     1
102
RTVSPropertyOp54
 70
     1
102
RTVSPropertyOp55
 70
     1
102
RTVSPropertyOp56
 70
     1
102
RTVSPropertyOp57
 70
     1
102
RTVSPost2010Prop28
280
     0
102
RTVSPost2010PropOp28
 70
     1
102
RTVSPost2010Prop29
280
     1
102
RTVSPost2010PropOp29
 70
     1
102
RTVSPost2010Prop30
280
     1
102
RTVSPost2010PropOp30
 70
     1
102
RTVSPost2010Prop31
280
     0
102
RTVSPost2010PropOp31
 70
     1
102
RTVSPost2010Prop32
280
     0
102
RTVSPost2010PropOp32
 70
     1
102
RTVSPost2010Prop33
280
     0
102
RTVSPost2010PropOp33
 70
     1
102
RTVSPost2010Prop34
280
     0
102
RTVSPost2010PropOp34
 70
     1
102
RTVSPost2010Prop35
280
     0
102
RTVSPost2010PropOp35
 70
     1
102
RTVSPost2010Prop36
280
     0
102
RTVSPost2010PropOp36
 70
     1
102
RTVSPost2010Prop37
 90
       50
102
RTVSPost2010PropOp37
 70
     1
102
RTVSPost2010Prop38
140
0.0
102
RTVSPost2010PropOp38
 70
     1
102
RTVSPost2010Prop39
140
1.0
102
RTVSPost2010PropOp39
 70
     1
102
RTVSPost2010Prop40
 90
        0
102
RTVSPost2010PropOp40
 70
     1
102
RTVSPost2010Prop41ColorIndex
 90
       18
102
RTVSPost2010Prop41ColorRGB
 90
        0
102
RTVSPost2010PropOp41
 70
     1
102
RTVSPost2010Prop42
 90
       50
102
RTVSPost2010PropOp42
 70
     1
102
RTVSPost2010Prop43
 90
        3
102
RTVSPost2010PropOp43
 70
     1
102
RTVSPost2010Prop44ColorIndex
 90
        5
102
RTVSPost2010Prop44ColorRGB
 90
      255
102
RTVSPost2010PropOp44
 70
     1
102
RTVSPost2010Prop45
280
     0
102
RTVSPost2010PropOp45
 70
     1
102
RTVSPost2010Prop46
 90
       50
102
RTVSPost2010PropOp46
 70
     1
102
RTVSPost2010Prop47
 90
       50
102
RTVSPost2010PropOp47
 70
     1
102
RTVSPost2010Prop48
 90
       50
102
RTVSPost2010PropOp48
 70
     1
102
RTVSPost2010Prop49
280
     0
102
RTVSPost2010PropOp49
 70
     1
102
RTVSPost2010Prop50
 90
       50
102
RTVSPost2010PropOp50
 70
     1
102
RTVSPost2010Prop51ColorIndex
 90
      256
102
RTVSPost2010Prop51ColorRGB
 90
-16777216
102
RTVSPost2010PropOp51
 70
     0
102
RTVSPost2010Prop52
140
1.0
102
RTVSPost2010PropOp52
 70
     0
102
RTVSPost2010Prop53
 90
        2
102
RTVSPost2010PropOp53
 70
     1
102
RTVSPost2010Prop54
  1
strokes_ogs.tif
102
RTVSPost2010PropOp54
 70
     1
102
RTVSPost2010Prop55
280
     0
102
RTVSPost2010PropOp55
 70
     1
102
RTVSPost2010Prop56
140
1.0
102
RTVSPost2010PropOp56
 70
     1
102
RTVSPost2010Prop57
140
1.0
102
RTVSPost2010PropOp57
 70
     1
  0
XRECORD
  5
1C8
102
{ACAD_REACTORS
330
1C7
102
}
330
1C7
100
AcDbXrecord
280
     1
102
RTVSPropertyOp0
 70
     1
102
RTVSPropertyOp1
 70
     1
102
RTVSPropertyOp2
 70
     1
102
RTVSPropertyOp3
 70
     1
102
RTVSPropertyOp4
 70
     1
102
RTVSPropertyOp5
 70
     1
102
RTVSPropertyOp6
 70
     1
102
RTVSPropertyOp7
 70
     1
102
RTVSPropertyOp8
 70
     1
102
RTVSPropertyOp9
 70
     1
102
RTVSPropertyOp10
 70
     1
102
RTVSPropertyOp11
 70
     1
102
RTVSPropertyOp12
 70
     1
102
RTVSPropertyOp13
 70
     1
102
RTVSPropertyOp14
 70
     1
102
RTVSPropertyOp15
 70
     1
102
RTVSPropertyOp16
 70
     1
102
RTVSPropertyOp17
 70
     1
102
RTVSPropertyOp18
 70
     1
102
RTVSPropertyOp19
 70
     1
102
RTVSPropertyOp20
 70
     1
102
RTVSPropertyOp21
 70
     1
102
RTVSPropertyOp22
 70
     1
102
RTVSPropertyOp23
 70
     1
102
RTVSPropertyOp24
 70
     1
102
RTVSPropertyOp25
 70
     1
102
RTVSPropertyOp26
 70
     1
102
RTVSPropertyOp27
 70
     1
102
RTVSPropertyOp28
 70
     1
102
RTVSPropertyOp29
 70
     1
102
RTVSPropertyOp30
 70
     1
102
RTVSPropertyOp31
 70
     1
102
RTVSPropertyOp32
 70
     1
102
RTVSPropertyOp33
 70
     1
102
RTVSPropertyOp34
 70
     1
102
RTVSPropertyOp35
 70
     1
102
RTVSPropertyOp36
 70
     1
102
RTVSPropertyOp37
 70
     1
102
RTVSPropertyOp38
 70
     1
102
RTVSPropertyOp39
 70
     1
102
RTVSPropertyOp40
 70
     1
102
RTVSPropertyOp41
 70
     1
102
RTVSPropertyOp42
 70
     1
102
RTVSPropertyOp43
 70
     1
102
RTVSPropertyOp44
 70
     1
102
RTVSPropertyOp45
 70
     1
102
RTVSPropertyOp46
 70
     1
102
RTVSPropertyOp47
 70
     1
102
RTVSPropertyOp48
 70
     1
102
RTVSPropertyOp49
 70
     1
102
RTVSPropertyOp50
 70
     1
102
RTVSPropertyOp51
 70
     0
102
RTVSPropertyOp52
 70
     0
102
RTVSPropertyOp53
 70
     1
102
RTVSPropertyOp54
 70
     1
102
RTVSPropertyOp55
 70
     1
102
RTVSPropertyOp56
 70
     1
102
RTVSPropertyOp57
 70
     1
102
RTVSPost2010Prop28
280
     0
102
RTVSPost2010PropOp28
 70
     1
102
RTVSPost2010Prop29
280
     1
102
RTVSPost2010PropOp29
 70
     1
102
RTVSPost2010Prop30
280
     1
102
RTVSPost2010PropOp30
 70
     1
102
RTVSPost2010Prop31
280
     0
102
RTVSPost2010PropOp31
 70
     1
102
RTVSPost2010Prop32
280
     0
102
RTVSPost2010PropOp32
 70
     1
102
RTVSPost2010Prop33
280
     0
102
RTVSPost2010PropOp33
 70
     1
102
RTVSPost2010Prop34
280
     0
102
RTVSPost2010PropOp34
 70
     1
102
RTVSPost2010Prop35
280
     0
102
RTVSPost2010PropOp35
 70
     1
102
RTVSPost2010Prop36
280
     0
102
RTVSPost2010PropOp36
 70
     1
102
RTVSPost2010Prop37
 90
       50
102
RTVSPost2010PropOp37
 70
     1
102
RTVSPost2010Prop38
140
0.0
102
RTVSPost2010PropOp38
 70
     1
102
RTVSPost2010Prop39
140
1.0
102
RTVSPost2010PropOp39
 70
     1
102
RTVSPost2010Prop40
 90
        0
102
RTVSPost2010PropOp40
 70
     1
102
RTVSPost2010Prop41ColorIndex
 90
       18
102
RTVSPost2010Prop41ColorRGB
 90
        0
102
RTVSPost2010PropOp41
 70
     1
102
RTVSPost2010Prop42
 90
       50
102
RTVSPost2010PropOp42
 70
     1
102
RTVSPost2010Prop43
 90
        3
102
RTVSPost2010PropOp43
 70
     1
102
RTVSPost2010Prop44ColorIndex
 90
        5
102
RTVSPost2010Prop44ColorRGB
 90
      255
102
RTVSPost2010PropOp44
 70
     1
102
RTVSPost2010Prop45
280
     0
102
RTVSPost2010PropOp45
 70
     1
102
RTVSPost2010Prop46
 90
       50
102
RTVSPost2010PropOp46
 70
     1
102
RTVSPost2010Prop47
 90
       50
102
RTVSPost2010PropOp47
 70
     1
102
RTVSPost2010Prop48
 90
       50
102
RTVSPost2010PropOp48
 70
     1
102
RTVSPost2010Prop49
280
     0
102
RTVSPost2010PropOp49
 70
     1
102
RTVSPost2010Prop50
 90
       50
102
RTVSPost2010PropOp50
 70
     1
102
RTVSPost2010Prop51ColorIndex
 90
      256
102
RTVSPost2010Prop51ColorRGB
 90
-16777216
102
RTVSPost2010PropOp51
 70
     0
102
RTVSPost2010Prop52
140
1.0
102
RTVSPost2010PropOp52
 70
     0
102
RTVSPost2010Prop53
 90
        2
102
RTVSPost2010PropOp53
 70
     1
102
RTVSPost2010Prop54
  1
strokes_ogs.tif
102
RTVSPost2010PropOp54
 70
     1
102
RTVSPost2010Prop55
280
     0
102
RTVSPost2010PropOp55
 70
     1
102
RTVSPost2010Prop56
140
1.0
102
RTVSPost2010PropOp56
 70
     1
102
RTVSPost2010Prop57
140
1.0
102
RTVSPost2010PropOp57
 70
     1
  0
XRECORD
  5
1BC
102
{ACAD_REACTORS
330
1BB
102
}
330
1BB
100
AcDbXrecord
280
     1
102
RTVSPropertyOp0
 70
     1
102
RTVSPropertyOp1
 70
     1
102
RTVSPropertyOp2
 70
     1
102
RTVSPropertyOp3
 70
     1
102
RTVSPropertyOp4
 70
     1
102
RTVSPropertyOp5
 70
     1
102
RTVSPropertyOp6
 70
     1
102
RTVSPropertyOp7
 70
     1
102
RTVSPropertyOp8
 70
     1
102
RTVSPropertyOp9
 70
     1
102
RTVSPropertyOp10
 70
     1
102
RTVSPropertyOp11
 70
     1
102
RTVSPropertyOp12
 70
     1
102
RTVSPropertyOp13
 70
     1
102
RTVSPropertyOp14
 70
     1
102
RTVSPropertyOp15
 70
     1
102
RTVSPropertyOp16
 70
     1
102
RTVSPropertyOp17
 70
     1
102
RTVSPropertyOp18
 70
     1
102
RTVSPropertyOp19
 70
     1
102
RTVSPropertyOp20
 70
     1
102
RTVSPropertyOp21
 70
     1
102
RTVSPropertyOp22
 70
     1
102
RTVSPropertyOp23
 70
     1
102
RTVSPropertyOp24
 70
     1
102
RTVSPropertyOp25
 70
     1
102
RTVSPropertyOp26
 70
     1
102
RTVSPropertyOp27
 70
     1
102
RTVSPropertyOp28
 70
     1
102
RTVSPropertyOp29
 70
     1
102
RTVSPropertyOp30
 70
     1
102
RTVSPropertyOp31
 70
     1
102
RTVSPropertyOp32
 70
     1
102
RTVSPropertyOp33
 70
     1
102
RTVSPropertyOp34
 70
     1
102
RTVSPropertyOp35
 70
     1
102
RTVSPropertyOp36
 70
     1
102
RTVSPropertyOp37
 70
     1
102
RTVSPropertyOp38
 70
     1
102
RTVSPropertyOp39
 70
     1
102
RTVSPropertyOp40
 70
     1
102
RTVSPropertyOp41
 70
     1
102
RTVSPropertyOp42
 70
     1
102
RTVSPropertyOp43
 70
     1
102
RTVSPropertyOp44
 70
     1
102
RTVSPropertyOp45
 70
     1
102
RTVSPropertyOp46
 70
     1
102
RTVSPropertyOp47
 70
     1
102
RTVSPropertyOp48
 70
     1
102
RTVSPropertyOp49
 70
     1
102
RTVSPropertyOp50
 70
     1
102
RTVSPropertyOp51
 70
     0
102
RTVSPropertyOp52
 70
     0
102
RTVSPropertyOp53
 70
     1
102
RTVSPropertyOp54
 70
     1
102
RTVSPropertyOp55
 70
     1
102
RTVSPropertyOp56
 70
     1
102
RTVSPropertyOp57
 70
     1
102
RTVSPost2010Prop28
280
     0
102
RTVSPost2010PropOp28
 70
     1
102
RTVSPost2010Prop29
280
     1
102
RTVSPost2010PropOp29
 70
     1
102
RTVSPost2010Prop30
280
     1
102
RTVSPost2010PropOp30
 70
     1
102
RTVSPost2010Prop31
280
     0
102
RTVSPost2010PropOp31
 70
     1
102
RTVSPost2010Prop32
280
     0
102
RTVSPost2010PropOp32
 70
     1
102
RTVSPost2010Prop33
280
     0
102
RTVSPost2010PropOp33
 70
     1
102
RTVSPost2010Prop34
280
     0
102
RTVSPost2010PropOp34
 70
     1
102
RTVSPost2010Prop35
280
     0
102
RTVSPost2010PropOp35
 70
     1
102
RTVSPost2010Prop36
280
     0
102
RTVSPost2010PropOp36
 70
     1
102
RTVSPost2010Prop37
 90
       50
102
RTVSPost2010PropOp37
 70
     1
102
RTVSPost2010Prop38
140
0.0
102
RTVSPost2010PropOp38
 70
     1
102
RTVSPost2010Prop39
140
1.0
102
RTVSPost2010PropOp39
 70
     1
102
RTVSPost2010Prop40
 90
        0
102
RTVSPost2010PropOp40
 70
     1
102
RTVSPost2010Prop41ColorIndex
 90
       18
102
RTVSPost2010Prop41ColorRGB
 90
        0
102
RTVSPost2010PropOp41
 70
     1
102
RTVSPost2010Prop42
 90
       50
102
RTVSPost2010PropOp42
 70
     1
102
RTVSPost2010Prop43
 90
        3
102
RTVSPost2010PropOp43
 70
     1
102
RTVSPost2010Prop44ColorIndex
 90
        5
102
RTVSPost2010Prop44ColorRGB
 90
      255
102
RTVSPost2010PropOp44
 70
     1
102
RTVSPost2010Prop45
280
     0
102
RTVSPost2010PropOp45
 70
     1
102
RTVSPost2010Prop46
 90
       50
102
RTVSPost2010PropOp46
 70
     1
102
RTVSPost2010Prop47
 90
       50
102
RTVSPost2010PropOp47
 70
     1
102
RTVSPost2010Prop48
 90
       50
102
RTVSPost2010PropOp48
 70
     1
102
RTVSPost2010Prop49
280
     0
102
RTVSPost2010PropOp49
 70
     1
102
RTVSPost2010Prop50
 90
       50
102
RTVSPost2010PropOp50
 70
     1
102
RTVSPost2010Prop51ColorIndex
 90
      256
102
RTVSPost2010Prop51ColorRGB
 90
-16777216
102
RTVSPost2010PropOp51
 70
     0
102
RTVSPost2010Prop52
140
1.0
102
RTVSPost2010PropOp52
 70
     0
102
RTVSPost2010Prop53
 90
        2
102
RTVSPost2010PropOp53
 70
     1
102
RTVSPost2010Prop54
  1
strokes_ogs.tif
102
RTVSPost2010PropOp54
 70
     1
102
RTVSPost2010Prop55
280
     0
102
RTVSPost2010PropOp55
 70
     1
102
RTVSPost2010Prop56
140
1.0
102
RTVSPost2010PropOp56
 70
     1
102
RTVSPost2010Prop57
140
1.0
102
RTVSPost2010PropOp57
 70
     1
  0
XRECORD
  5
1BE
102
{ACAD_REACTORS
330
1BD
102
}
330
1BD
100
AcDbXrecord
280
     1
102
RTVSPropertyOp0
 70
     1
102
RTVSPropertyOp1
 70
     1
102
RTVSPropertyOp2
 70
     1
102
RTVSPropertyOp3
 70
     1
102
RTVSPropertyOp4
 70
     1
102
RTVSPropertyOp5
 70
     1
102
RTVSPropertyOp6
 70
     1
102
RTVSPropertyOp7
 70
     1
102
RTVSPropertyOp8
 70
     1
102
RTVSPropertyOp9
 70
     1
102
RTVSPropertyOp10
 70
     1
102
RTVSPropertyOp11
 70
     1
102
RTVSPropertyOp12
 70
     1
102
RTVSPropertyOp13
 70
     1
102
RTVSPropertyOp14
 70
     1
102
RTVSPropertyOp15
 70
     1
102
RTVSPropertyOp16
 70
     1
102
RTVSPropertyOp17
 70
     1
102
RTVSPropertyOp18
 70
     1
102
RTVSPropertyOp19
 70
     1
102
RTVSPropertyOp20
 70
     1
102
RTVSPropertyOp21
 70
     1
102
RTVSPropertyOp22
 70
     1
102
RTVSPropertyOp23
 70
     1
102
RTVSPropertyOp24
 70
     1
102
RTVSPropertyOp25
 70
     1
102
RTVSPropertyOp26
 70
     1
102
RTVSPropertyOp27
 70
     1
102
RTVSPropertyOp28
 70
     1
102
RTVSPropertyOp29
 70
     1
102
RTVSPropertyOp30
 70
     1
102
RTVSPropertyOp31
 70
     1
102
RTVSPropertyOp32
 70
     1
102
RTVSPropertyOp33
 70
     1
102
RTVSPropertyOp34
 70
     1
102
RTVSPropertyOp35
 70
     1
102
RTVSPropertyOp36
 70
     1
102
RTVSPropertyOp37
 70
     1
102
RTVSPropertyOp38
 70
     1
102
RTVSPropertyOp39
 70
     1
102
RTVSPropertyOp40
 70
     1
102
RTVSPropertyOp41
 70
     1
102
RTVSPropertyOp42
 70
     1
102
RTVSPropertyOp43
 70
     1
102
RTVSPropertyOp44
 70
     1
102
RTVSPropertyOp45
 70
     1
102
RTVSPropertyOp46
 70
     1
102
RTVSPropertyOp47
 70
     1
102
RTVSPropertyOp48
 70
     1
102
RTVSPropertyOp49
 70
     1
102
RTVSPropertyOp50
 70
     1
102
RTVSPropertyOp51
 70
     0
102
RTVSPropertyOp52
 70
     0
102
RTVSPropertyOp53
 70
     1
102
RTVSPropertyOp54
 70
     1
102
RTVSPropertyOp55
 70
     1
102
RTVSPropertyOp56
 70
     1
102
RTVSPropertyOp57
 70
     1
102
RTVSPost2010Prop28
280
     0
102
RTVSPost2010PropOp28
 70
     1
102
RTVSPost2010Prop29
280
     1
102
RTVSPost2010PropOp29
 70
     1
102
RTVSPost2010Prop30
280
     1
102
RTVSPost2010PropOp30
 70
     1
102
RTVSPost2010Prop31
280
     0
102
RTVSPost2010PropOp31
 70
     1
102
RTVSPost2010Prop32
280
     0
102
RTVSPost2010PropOp32
 70
     1
102
RTVSPost2010Prop33
280
     0
102
RTVSPost2010PropOp33
 70
     1
102
RTVSPost2010Prop34
280
     0
102
RTVSPost2010PropOp34
 70
     1
102
RTVSPost2010Prop35
280
     0
102
RTVSPost2010PropOp35
 70
     1
102
RTVSPost2010Prop36
280
     0
102
RTVSPost2010PropOp36
 70
     1
102
RTVSPost2010Prop37
 90
       50
102
RTVSPost2010PropOp37
 70
     1
102
RTVSPost2010Prop38
140
0.0
102
RTVSPost2010PropOp38
 70
     1
102
RTVSPost2010Prop39
140
1.0
102
RTVSPost2010PropOp39
 70
     1
102
RTVSPost2010Prop40
 90
        0
102
RTVSPost2010PropOp40
 70
     1
102
RTVSPost2010Prop41ColorIndex
 90
       18
102
RTVSPost2010Prop41ColorRGB
 90
        0
102
RTVSPost2010PropOp41
 70
     1
102
RTVSPost2010Prop42
 90
       50
102
RTVSPost2010PropOp42
 70
     1
102
RTVSPost2010Prop43
 90
        3
102
RTVSPost2010PropOp43
 70
     1
102
RTVSPost2010Prop44ColorIndex
 90
        5
102
RTVSPost2010Prop44ColorRGB
 90
      255
102
RTVSPost2010PropOp44
 70
     1
102
RTVSPost2010Prop45
280
     0
102
RTVSPost2010PropOp45
 70
     1
102
RTVSPost2010Prop46
 90
       50
102
RTVSPost2010PropOp46
 70
     1
102
RTVSPost2010Prop47
 90
       50
102
RTVSPost2010PropOp47
 70
     1
102
RTVSPost2010Prop48
 90
       50
102
RTVSPost2010PropOp48
 70
     1
102
RTVSPost2010Prop49
280
     0
102
RTVSPost2010PropOp49
 70
     1
102
RTVSPost2010Prop50
 90
       50
102
RTVSPost2010PropOp50
 70
     1
102
RTVSPost2010Prop51ColorIndex
 90
      256
102
RTVSPost2010Prop51ColorRGB
 90
-16777216
102
RTVSPost2010PropOp51
 70
     0
102
RTVSPost2010Prop52
140
1.0
102
RTVSPost2010PropOp52
 70
     0
102
RTVSPost2010Prop53
 90
        2
102
RTVSPost2010PropOp53
 70
     1
102
RTVSPost2010Prop54
  1
strokes_ogs.tif
102
RTVSPost2010PropOp54
 70
     1
102
RTVSPost2010Prop55
280
     0
102
RTVSPost2010PropOp55
 70
     1
102
RTVSPost2010Prop56
140
1.0
102
RTVSPost2010PropOp56
 70
     1
102
RTVSPost2010Prop57
140
1.0
102
RTVSPost2010PropOp57
 70
     1
  0
XRECORD
  5
1CE
102
{ACAD_REACTORS
330
1CD
102
}
330
1CD
100
AcDbXrecord
280
     1
102
RTVSPropertyOp0
 70
     0
102
RTVSPropertyOp1
 70
     0
102
RTVSPropertyOp2
 70
     0
102
RTVSPropertyOp3
 70
     0
102
RTVSPropertyOp4
 70
     0
102
RTVSPropertyOp5
 70
     0
102
RTVSPropertyOp6
 70
     0
102
RTVSPropertyOp7
 70
     0
102
RTVSPropertyOp8
 70
     0
102
RTVSPropertyOp9
 70
     0
102
RTVSPropertyOp10
 70
     0
102
RTVSPropertyOp11
 70
     0
102
RTVSPropertyOp12
 70
     0
102
RTVSPropertyOp13
 70
     0
102
RTVSPropertyOp14
 70
     2
102
RTVSPropertyOp15
 70
     0
102
RTVSPropertyOp16
 70
     0
102
RTVSPropertyOp17
 70
     0
102
RTVSPropertyOp18
 70
     0
102
RTVSPropertyOp19
 70
     0
102
RTVSPropertyOp20
 70
     0
102
RTVSPropertyOp21
 70
     0
102
RTVSPropertyOp22
 70
     0
102
RTVSPropertyOp23
 70
     0
102
RTVSPropertyOp24
 70
     0
102
RTVSPropertyOp25
 70
     0
102
RTVSPropertyOp26
 70
     0
102
RTVSPropertyOp27
 70
     0
102
RTVSPropertyOp28
 70
     0
102
RTVSPropertyOp29
 70
     0
102
RTVSPropertyOp30
 70
     0
102
RTVSPropertyOp31
 70
     0
102
RTVSPropertyOp32
 70
     0
102
RTVSPropertyOp33
 70
     0
102
RTVSPropertyOp34
 70
     0
102
RTVSPropertyOp35
 70
     0
102
RTVSPropertyOp36
 70
     0
102
RTVSPropertyOp37
 70
     0
102
RTVSPropertyOp38
 70
     0
102
RTVSPropertyOp39
 70
     0
102
RTVSPropertyOp40
 70
     0
102
RTVSPropertyOp41
 70
     0
102
RTVSPropertyOp42
 70
     0
102
RTVSPropertyOp43
 70
     0
102
RTVSPropertyOp44
 70
     0
102
RTVSPropertyOp45
 70
     0
102
RTVSPropertyOp46
 70
     0
102
RTVSPropertyOp47
 70
     0
102
RTVSPropertyOp48
 70
     0
102
RTVSPropertyOp49
 70
     0
102
RTVSPropertyOp50
 70
     0
102
RTVSPropertyOp51
 70
     0
102
RTVSPropertyOp52
 70
     0
102
RTVSPropertyOp53
 70
     0
102
RTVSPropertyOp54
 70
     0
102
RTVSPropertyOp55
 70
     0
102
RTVSPropertyOp56
 70
     0
102
RTVSPropertyOp57
 70
     0
102
RTVSPost2010Prop28
280
     0
102
RTVSPost2010PropOp28
 70
     0
102
RTVSPost2010Prop29
280
     1
102
RTVSPost2010PropOp29
 70
     0
102
RTVSPost2010Prop30
280
     1
102
RTVSPost2010PropOp30
 70
     0
102
RTVSPost2010Prop31
280
     0
102
RTVSPost2010PropOp31
 70
     0
102
RTVSPost2010Prop32
280
     0
102
RTVSPost2010PropOp32
 70
     0
102
RTVSPost2010Prop33
280
     0
102
RTVSPost2010PropOp33
 70
     0
102
RTVSPost2010Prop34
280
     0
102
RTVSPost2010PropOp34
 70
     0
102
RTVSPost2010Prop35
280
     0
102
RTVSPost2010PropOp35
 70
     0
102
RTVSPost2010Prop36
280
     0
102
RTVSPost2010PropOp36
 70
     0
102
RTVSPost2010Prop37
 90
       50
102
RTVSPost2010PropOp37
 70
     0
102
RTVSPost2010Prop38
140
0.0
102
RTVSPost2010PropOp38
 70
     0
102
RTVSPost2010Prop39
140
1.0
102
RTVSPost2010PropOp39
 70
     0
102
RTVSPost2010Prop40
 90
        0
102
RTVSPost2010PropOp40
 70
     0
102
RTVSPost2010Prop41ColorIndex
 90
       18
102
RTVSPost2010Prop41ColorRGB
 90
        0
102
RTVSPost2010PropOp41
 70
     0
102
RTVSPost2010Prop42
 90
       50
102
RTVSPost2010PropOp42
 70
     0
102
RTVSPost2010Prop43
 90
        3
102
RTVSPost2010PropOp43
 70
     0
102
RTVSPost2010Prop44ColorIndex
 90
        5
102
RTVSPost2010Prop44ColorRGB
 90
      255
102
RTVSPost2010PropOp44
 70
     0
102
RTVSPost2010Prop45
280
     0
102
RTVSPost2010PropOp45
 70
     0
102
RTVSPost2010Prop46
 90
       50
102
RTVSPost2010PropOp46
 70
     0
102
RTVSPost2010Prop47
 90
       50
102
RTVSPost2010PropOp47
 70
     0
102
RTVSPost2010Prop48
 90
       50
102
RTVSPost2010PropOp48
 70
     0
102
RTVSPost2010Prop49
280
     0
102
RTVSPost2010PropOp49
 70
     0
102
RTVSPost2010Prop50
 90
       50
102
RTVSPost2010PropOp50
 70
     0
102
RTVSPost2010Prop51ColorIndex
 90
      256
102
RTVSPost2010Prop51ColorRGB
 90
-16777216
102
RTVSPost2010PropOp51
 70
     0
102
RTVSPost2010Prop52
140
1.0
102
RTVSPost2010PropOp52
 70
     0
102
RTVSPost2010Prop53
 90
        2
102
RTVSPost2010PropOp53
 70
     0
102
RTVSPost2010Prop54
  1
strokes_ogs.tif
102
RTVSPost2010PropOp54
 70
     0
102
RTVSPost2010Prop55
280
     0
102
RTVSPost2010PropOp55
 70
     0
102
RTVSPost2010Prop56
140
1.0
102
RTVSPost2010PropOp56
 70
     0
102
RTVSPost2010Prop57
140
1.0
102
RTVSPost2010PropOp57
 70
     0
  0
XRECORD
  5
1C6
102
{ACAD_REACTORS
330
1C5
102
}
330
1C5
100
AcDbXrecord
280
     1
102
RTVSPropertyOp0
 70
     1
102
RTVSPropertyOp1
 70
     1
102
RTVSPropertyOp2
 70
     1
102
RTVSPropertyOp3
 70
     1
102
RTVSPropertyOp4
 70
     1
102
RTVSPropertyOp5
 70
     1
102
RTVSPropertyOp6
 70
     1
102
RTVSPropertyOp7
 70
     1
102
RTVSPropertyOp8
 70
     1
102
RTVSPropertyOp9
 70
     1
102
RTVSPropertyOp10
 70
     1
102
RTVSPropertyOp11
 70
     1
102
RTVSPropertyOp12
 70
     1
102
RTVSPropertyOp13
 70
     1
102
RTVSPropertyOp14
 70
     1
102
RTVSPropertyOp15
 70
     1
102
RTVSPropertyOp16
 70
     1
102
RTVSPropertyOp17
 70
     1
102
RTVSPropertyOp18
 70
     1
102
RTVSPropertyOp19
 70
     1
102
RTVSPropertyOp20
 70
     1
102
RTVSPropertyOp21
 70
     1
102
RTVSPropertyOp22
 70
     1
102
RTVSPropertyOp23
 70
     1
102
RTVSPropertyOp24
 70
     1
102
RTVSPropertyOp25
 70
     1
102
RTVSPropertyOp26
 70
     1
102
RTVSPropertyOp27
 70
     1
102
RTVSPropertyOp28
 70
     1
102
RTVSPropertyOp29
 70
     1
102
RTVSPropertyOp30
 70
     1
102
RTVSPropertyOp31
 70
     1
102
RTVSPropertyOp32
 70
     1
102
RTVSPropertyOp33
 70
     1
102
RTVSPropertyOp34
 70
     1
102
RTVSPropertyOp35
 70
     1
102
RTVSPropertyOp36
 70
     1
102
RTVSPropertyOp37
 70
     1
102
RTVSPropertyOp38
 70
     1
102
RTVSPropertyOp39
 70
     1
102
RTVSPropertyOp40
 70
     1
102
RTVSPropertyOp41
 70
     1
102
RTVSPropertyOp42
 70
     1
102
RTVSPropertyOp43
 70
     1
102
RTVSPropertyOp44
 70
     1
102
RTVSPropertyOp45
 70
     1
102
RTVSPropertyOp46
 70
     1
102
RTVSPropertyOp47
 70
     1
102
RTVSPropertyOp48
 70
     1
102
RTVSPropertyOp49
 70
     1
102
RTVSPropertyOp50
 70
     1
102
RTVSPropertyOp51
 70
     0
102
RTVSPropertyOp52
 70
     0
102
RTVSPropertyOp53
 70
     1
102
RTVSPropertyOp54
 70
     1
102
RTVSPropertyOp55
 70
     1
102
RTVSPropertyOp56
 70
     1
102
RTVSPropertyOp57
 70
     1
102
RTVSPost2010Prop28
280
     0
102
RTVSPost2010PropOp28
 70
     1
102
RTVSPost2010Prop29
280
     1
102
RTVSPost2010PropOp29
 70
     1
102
RTVSPost2010Prop30
280
     1
102
RTVSPost2010PropOp30
 70
     1
102
RTVSPost2010Prop31
280
     0
102
RTVSPost2010PropOp31
 70
     1
102
RTVSPost2010Prop32
280
     0
102
RTVSPost2010PropOp32
 70
     1
102
RTVSPost2010Prop33
280
     0
102
RTVSPost2010PropOp33
 70
     1
102
RTVSPost2010Prop34
280
     0
102
RTVSPost2010PropOp34
 70
     1
102
RTVSPost2010Prop35
280
     0
102
RTVSPost2010PropOp35
 70
     1
102
RTVSPost2010Prop36
280
     0
102
RTVSPost2010PropOp36
 70
     1
102
RTVSPost2010Prop37
 90
       50
102
RTVSPost2010PropOp37
 70
     1
102
RTVSPost2010Prop38
140
0.0
102
RTVSPost2010PropOp38
 70
     1
102
RTVSPost2010Prop39
140
1.0
102
RTVSPost2010PropOp39
 70
     1
102
RTVSPost2010Prop40
 90
        0
102
RTVSPost2010PropOp40
 70
     1
102
RTVSPost2010Prop41ColorIndex
 90
       18
102
RTVSPost2010Prop41ColorRGB
 90
        0
102
RTVSPost2010PropOp41
 70
     1
102
RTVSPost2010Prop42
 90
       50
102
RTVSPost2010PropOp42
 70
     1
102
RTVSPost2010Prop43
 90
        3
102
RTVSPost2010PropOp43
 70
     1
102
RTVSPost2010Prop44ColorIndex
 90
        5
102
RTVSPost2010Prop44ColorRGB
 90
      255
102
RTVSPost2010PropOp44
 70
     1
102
RTVSPost2010Prop45
280
     0
102
RTVSPost2010PropOp45
 70
     1
102
RTVSPost2010Prop46
 90
       50
102
RTVSPost2010PropOp46
 70
     1
102
RTVSPost2010Prop47
 90
       50
102
RTVSPost2010PropOp47
 70
     1
102
RTVSPost2010Prop48
 90
       50
102
RTVSPost2010PropOp48
 70
     1
102
RTVSPost2010Prop49
280
     0
102
RTVSPost2010PropOp49
 70
     1
102
RTVSPost2010Prop50
 90
       50
102
RTVSPost2010PropOp50
 70
     1
102
RTVSPost2010Prop51ColorIndex
 90
      256
102
RTVSPost2010Prop51ColorRGB
 90
-16777216
102
RTVSPost2010PropOp51
 70
     0
102
RTVSPost2010Prop52
140
1.0
102
RTVSPost2010PropOp52
 70
     0
102
RTVSPost2010Prop53
 90
        2
102
RTVSPost2010PropOp53
 70
     1
102
RTVSPost2010Prop54
  1
strokes_ogs.tif
102
RTVSPost2010PropOp54
 70
     1
102
RTVSPost2010Prop55
280
     0
102
RTVSPost2010PropOp55
 70
     1
102
RTVSPost2010Prop56
140
1.0
102
RTVSPost2010PropOp56
 70
     1
102
RTVSPost2010Prop57
140
1.0
102
RTVSPost2010PropOp57
 70
     1
  0
XRECORD
  5
1AA
102
{ACAD_REACTORS
330
1A9
102
}
330
1A9
100
AcDbXrecord
280
     1
102
RTVSPropertyOp0
 70
     1
102
RTVSPropertyOp1
 70
     1
102
RTVSPropertyOp2
 70
     1
102
RTVSPropertyOp3
 70
     1
102
RTVSPropertyOp4
 70
     1
102
RTVSPropertyOp5
 70
     1
102
RTVSPropertyOp6
 70
     1
102
RTVSPropertyOp7
 70
     1
102
RTVSPropertyOp8
 70
     1
102
RTVSPropertyOp9
 70
     1
102
RTVSPropertyOp10
 70
     1
102
RTVSPropertyOp11
 70
     1
102
RTVSPropertyOp12
 70
     1
102
RTVSPropertyOp13
 70
     1
102
RTVSPropertyOp14
 70
     1
102
RTVSPropertyOp15
 70
     1
102
RTVSPropertyOp16
 70
     1
102
RTVSPropertyOp17
 70
     1
102
RTVSPropertyOp18
 70
     1
102
RTVSPropertyOp19
 70
     1
102
RTVSPropertyOp20
 70
     1
102
RTVSPropertyOp21
 70
     1
102
RTVSPropertyOp22
 70
     1
102
RTVSPropertyOp23
 70
     1
102
RTVSPropertyOp24
 70
     1
102
RTVSPropertyOp25
 70
     1
102
RTVSPropertyOp26
 70
     1
102
RTVSPropertyOp27
 70
     1
102
RTVSPropertyOp28
 70
     1
102
RTVSPropertyOp29
 70
     1
102
RTVSPropertyOp30
 70
     1
102
RTVSPropertyOp31
 70
     1
102
RTVSPropertyOp32
 70
     1
102
RTVSPropertyOp33
 70
     1
102
RTVSPropertyOp34
 70
     1
102
RTVSPropertyOp35
 70
     1
102
RTVSPropertyOp36
 70
     1
102
RTVSPropertyOp37
 70
     1
102
RTVSPropertyOp38
 70
     1
102
RTVSPropertyOp39
 70
     1
102
RTVSPropertyOp40
 70
     1
102
RTVSPropertyOp41
 70
     1
102
RTVSPropertyOp42
 70
     1
102
RTVSPropertyOp43
 70
     1
102
RTVSPropertyOp44
 70
     1
102
RTVSPropertyOp45
 70
     1
102
RTVSPropertyOp46
 70
     1
102
RTVSPropertyOp47
 70
     1
102
RTVSPropertyOp48
 70
     1
102
RTVSPropertyOp49
 70
     1
102
RTVSPropertyOp50
 70
     1
102
RTVSPropertyOp51
 70
     0
102
RTVSPropertyOp52
 70
     0
102
RTVSPropertyOp53
 70
     1
102
RTVSPropertyOp54
 70
     1
102
RTVSPropertyOp55
 70
     1
102
RTVSPropertyOp56
 70
     1
102
RTVSPropertyOp57
 70
     1
102
RTVSPost2010Prop28
280
     0
102
RTVSPost2010PropOp28
 70
     1
102
RTVSPost2010Prop29
280
     1
102
RTVSPost2010PropOp29
 70
     1
102
RTVSPost2010Prop30
280
     1
102
RTVSPost2010PropOp30
 70
     1
102
RTVSPost2010Prop31
280
     0
102
RTVSPost2010PropOp31
 70
     1
102
RTVSPost2010Prop32
280
     0
102
RTVSPost2010PropOp32
 70
     1
102
RTVSPost2010Prop33
280
     0
102
RTVSPost2010PropOp33
 70
     1
102
RTVSPost2010Prop34
280
     0
102
RTVSPost2010PropOp34
 70
     1
102
RTVSPost2010Prop35
280
     0
102
RTVSPost2010PropOp35
 70
     1
102
RTVSPost2010Prop36
280
     0
102
RTVSPost2010PropOp36
 70
     1
102
RTVSPost2010Prop37
 90
       50
102
RTVSPost2010PropOp37
 70
     1
102
RTVSPost2010Prop38
140
0.0
102
RTVSPost2010PropOp38
 70
     1
102
RTVSPost2010Prop39
140
1.0
102
RTVSPost2010PropOp39
 70
     1
102
RTVSPost2010Prop40
 90
        0
102
RTVSPost2010PropOp40
 70
     1
102
RTVSPost2010Prop41ColorIndex
 90
       18
102
RTVSPost2010Prop41ColorRGB
 90
        0
102
RTVSPost2010PropOp41
 70
     1
102
RTVSPost2010Prop42
 90
       50
102
RTVSPost2010PropOp42
 70
     1
102
RTVSPost2010Prop43
 90
        3
102
RTVSPost2010PropOp43
 70
     1
102
RTVSPost2010Prop44ColorIndex
 90
        5
102
RTVSPost2010Prop44ColorRGB
 90
      255
102
RTVSPost2010PropOp44
 70
     1
102
RTVSPost2010Prop45
280
     0
102
RTVSPost2010PropOp45
 70
     1
102
RTVSPost2010Prop46
 90
       50
102
RTVSPost2010PropOp46
 70
     1
102
RTVSPost2010Prop47
 90
       50
102
RTVSPost2010PropOp47
 70
     1
102
RTVSPost2010Prop48
 90
       50
102
RTVSPost2010PropOp48
 70
     1
102
RTVSPost2010Prop49
280
     0
102
RTVSPost2010PropOp49
 70
     1
102
RTVSPost2010Prop50
 90
       50
102
RTVSPost2010PropOp50
 70
     1
102
RTVSPost2010Prop51ColorIndex
 90
      256
102
RTVSPost2010Prop51ColorRGB
 90
-16777216
102
RTVSPost2010PropOp51
 70
     0
102
RTVSPost2010Prop52
140
1.0
102
RTVSPost2010PropOp52
 70
     0
102
RTVSPost2010Prop53
 90
        2
102
RTVSPost2010PropOp53
 70
     1
102
RTVSPost2010Prop54
  1
strokes_ogs.tif
102
RTVSPost2010PropOp54
 70
     1
102
RTVSPost2010Prop55
280
     0
102
RTVSPost2010PropOp55
 70
     1
102
RTVSPost2010Prop56
140
1.0
102
RTVSPost2010PropOp56
 70
     1
102
RTVSPost2010Prop57
140
1.0
102
RTVSPost2010PropOp57
 70
     1
  0
XRECORD
  5
1AC
102
{ACAD_REACTORS
330
1AB
102
}
330
1AB
100
AcDbXrecord
280
     1
102
RTVSPropertyOp0
 70
     1
102
RTVSPropertyOp1
 70
     1
102
RTVSPropertyOp2
 70
     1
102
RTVSPropertyOp3
 70
     1
102
RTVSPropertyOp4
 70
     1
102
RTVSPropertyOp5
 70
     1
102
RTVSPropertyOp6
 70
     1
102
RTVSPropertyOp7
 70
     1
102
RTVSPropertyOp8
 70
     1
102
RTVSPropertyOp9
 70
     1
102
RTVSPropertyOp10
 70
     1
102
RTVSPropertyOp11
 70
     1
102
RTVSPropertyOp12
 70
     1
102
RTVSPropertyOp13
 70
     1
102
RTVSPropertyOp14
 70
     1
102
RTVSPropertyOp15
 70
     1
102
RTVSPropertyOp16
 70
     1
102
RTVSPropertyOp17
 70
     1
102
RTVSPropertyOp18
 70
     1
102
RTVSPropertyOp19
 70
     1
102
RTVSPropertyOp20
 70
     1
102
RTVSPropertyOp21
 70
     1
102
RTVSPropertyOp22
 70
     1
102
RTVSPropertyOp23
 70
     1
102
RTVSPropertyOp24
 70
     1
102
RTVSPropertyOp25
 70
     1
102
RTVSPropertyOp26
 70
     1
102
RTVSPropertyOp27
 70
     1
102
RTVSPropertyOp28
 70
     1
102
RTVSPropertyOp29
 70
     1
102
RTVSPropertyOp30
 70
     1
102
RTVSPropertyOp31
 70
     1
102
RTVSPropertyOp32
 70
     1
102
RTVSPropertyOp33
 70
     1
102
RTVSPropertyOp34
 70
     1
102
RTVSPropertyOp35
 70
     1
102
RTVSPropertyOp36
 70
     1
102
RTVSPropertyOp37
 70
     1
102
RTVSPropertyOp38
 70
     1
102
RTVSPropertyOp39
 70
     1
102
RTVSPropertyOp40
 70
     1
102
RTVSPropertyOp41
 70
     1
102
RTVSPropertyOp42
 70
     1
102
RTVSPropertyOp43
 70
     1
102
RTVSPropertyOp44
 70
     1
102
RTVSPropertyOp45
 70
     1
102
RTVSPropertyOp46
 70
     1
102
RTVSPropertyOp47
 70
     1
102
RTVSPropertyOp48
 70
     1
102
RTVSPropertyOp49
 70
     1
102
RTVSPropertyOp50
 70
     1
102
RTVSPropertyOp51
 70
     0
102
RTVSPropertyOp52
 70
     0
102
RTVSPropertyOp53
 70
     1
102
RTVSPropertyOp54
 70
     1
102
RTVSPropertyOp55
 70
     1
102
RTVSPropertyOp56
 70
     1
102
RTVSPropertyOp57
 70
     1
102
RTVSPost2010Prop28
280
     0
102
RTVSPost2010PropOp28
 70
     1
102
RTVSPost2010Prop29
280
     1
102
RTVSPost2010PropOp29
 70
     1
102
RTVSPost2010Prop30
280
     1
102
RTVSPost2010PropOp30
 70
     1
102
RTVSPost2010Prop31
280
     0
102
RTVSPost2010PropOp31
 70
     1
102
RTVSPost2010Prop32
280
     0
102
RTVSPost2010PropOp32
 70
     1
102
RTVSPost2010Prop33
280
     0
102
RTVSPost2010PropOp33
 70
     1
102
RTVSPost2010Prop34
280
     0
102
RTVSPost2010PropOp34
 70
     1
102
RTVSPost2010Prop35
280
     0
102
RTVSPost2010PropOp35
 70
     1
102
RTVSPost2010Prop36
280
     0
102
RTVSPost2010PropOp36
 70
     1
102
RTVSPost2010Prop37
 90
       50
102
RTVSPost2010PropOp37
 70
     1
102
RTVSPost2010Prop38
140
0.0
102
RTVSPost2010PropOp38
 70
     1
102
RTVSPost2010Prop39
140
1.0
102
RTVSPost2010PropOp39
 70
     1
102
RTVSPost2010Prop40
 90
        0
102
RTVSPost2010PropOp40
 70
     1
102
RTVSPost2010Prop41ColorIndex
 90
       18
102
RTVSPost2010Prop41ColorRGB
 90
        0
102
RTVSPost2010PropOp41
 70
     1
102
RTVSPost2010Prop42
 90
       50
102
RTVSPost2010PropOp42
 70
     1
102
RTVSPost2010Prop43
 90
        3
102
RTVSPost2010PropOp43
 70
     1
102
RTVSPost2010Prop44ColorIndex
 90
        5
102
RTVSPost2010Prop44ColorRGB
 90
      255
102
RTVSPost2010PropOp44
 70
     1
102
RTVSPost2010Prop45
280
     0
102
RTVSPost2010PropOp45
 70
     1
102
RTVSPost2010Prop46
 90
       50
102
RTVSPost2010PropOp46
 70
     1
102
RTVSPost2010Prop47
 90
       50
102
RTVSPost2010PropOp47
 70
     1
102
RTVSPost2010Prop48
 90
       50
102
RTVSPost2010PropOp48
 70
     1
102
RTVSPost2010Prop49
280
     0
102
RTVSPost2010PropOp49
 70
     1
102
RTVSPost2010Prop50
 90
       50
102
RTVSPost2010PropOp50
 70
     1
102
RTVSPost2010Prop51ColorIndex
 90
      256
102
RTVSPost2010Prop51ColorRGB
 90
-16777216
102
RTVSPost2010PropOp51
 70
     0
102
RTVSPost2010Prop52
140
1.0
102
RTVSPost2010PropOp52
 70
     0
102
RTVSPost2010Prop53
 90
        2
102
RTVSPost2010PropOp53
 70
     1
102
RTVSPost2010Prop54
  1
strokes_ogs.tif
102
RTVSPost2010PropOp54
 70
     1
102
RTVSPost2010Prop55
280
     0
102
RTVSPost2010PropOp55
 70
     1
102
RTVSPost2010Prop56
140
1.0
102
RTVSPost2010PropOp56
 70
     1
102
RTVSPost2010Prop57
140
1.0
102
RTVSPost2010PropOp57
 70
     1
  0
XRECORD
  5
1AE
102
{ACAD_REACTORS
330
1AD
102
}
330
1AD
100
AcDbXrecord
280
     1
102
RTVSPropertyOp0
 70
     1
102
RTVSPropertyOp1
 70
     1
102
RTVSPropertyOp2
 70
     1
102
RTVSPropertyOp3
 70
     1
102
RTVSPropertyOp4
 70
     1
102
RTVSPropertyOp5
 70
     1
102
RTVSPropertyOp6
 70
     1
102
RTVSPropertyOp7
 70
     1
102
RTVSPropertyOp8
 70
     1
102
RTVSPropertyOp9
 70
     1
102
RTVSPropertyOp10
 70
     1
102
RTVSPropertyOp11
 70
     1
102
RTVSPropertyOp12
 70
     1
102
RTVSPropertyOp13
 70
     1
102
RTVSPropertyOp14
 70
     1
102
RTVSPropertyOp15
 70
     1
102
RTVSPropertyOp16
 70
     1
102
RTVSPropertyOp17
 70
     1
102
RTVSPropertyOp18
 70
     1
102
RTVSPropertyOp19
 70
     1
102
RTVSPropertyOp20
 70
     1
102
RTVSPropertyOp21
 70
     1
102
RTVSPropertyOp22
 70
     1
102
RTVSPropertyOp23
 70
     1
102
RTVSPropertyOp24
 70
     1
102
RTVSPropertyOp25
 70
     1
102
RTVSPropertyOp26
 70
     1
102
RTVSPropertyOp27
 70
     1
102
RTVSPropertyOp28
 70
     1
102
RTVSPropertyOp29
 70
     1
102
RTVSPropertyOp30
 70
     1
102
RTVSPropertyOp31
 70
     1
102
RTVSPropertyOp32
 70
     1
102
RTVSPropertyOp33
 70
     1
102
RTVSPropertyOp34
 70
     1
102
RTVSPropertyOp35
 70
     1
102
RTVSPropertyOp36
 70
     1
102
RTVSPropertyOp37
 70
     1
102
RTVSPropertyOp38
 70
     1
102
RTVSPropertyOp39
 70
     1
102
RTVSPropertyOp40
 70
     1
102
RTVSPropertyOp41
 70
     1
102
RTVSPropertyOp42
 70
     1
102
RTVSPropertyOp43
 70
     1
102
RTVSPropertyOp44
 70
     1
102
RTVSPropertyOp45
 70
     1
102
RTVSPropertyOp46
 70
     1
102
RTVSPropertyOp47
 70
     1
102
RTVSPropertyOp48
 70
     1
102
RTVSPropertyOp49
 70
     1
102
RTVSPropertyOp50
 70
     1
102
RTVSPropertyOp51
 70
     0
102
RTVSPropertyOp52
 70
     0
102
RTVSPropertyOp53
 70
     1
102
RTVSPropertyOp54
 70
     1
102
RTVSPropertyOp55
 70
     1
102
RTVSPropertyOp56
 70
     1
102
RTVSPropertyOp57
 70
     1
102
RTVSPost2010Prop28
280
     0
102
RTVSPost2010PropOp28
 70
     1
102
RTVSPost2010Prop29
280
     1
102
RTVSPost2010PropOp29
 70
     1
102
RTVSPost2010Prop30
280
     1
102
RTVSPost2010PropOp30
 70
     1
102
RTVSPost2010Prop31
280
     0
102
RTVSPost2010PropOp31
 70
     1
102
RTVSPost2010Prop32
280
     0
102
RTVSPost2010PropOp32
 70
     1
102
RTVSPost2010Prop33
280
     0
102
RTVSPost2010PropOp33
 70
     1
102
RTVSPost2010Prop34
280
     0
102
RTVSPost2010PropOp34
 70
     1
102
RTVSPost2010Prop35
280
     0
102
RTVSPost2010PropOp35
 70
     1
102
RTVSPost2010Prop36
280
     0
102
RTVSPost2010PropOp36
 70
     1
102
RTVSPost2010Prop37
 90
       50
102
RTVSPost2010PropOp37
 70
     1
102
RTVSPost2010Prop38
140
0.0
102
RTVSPost2010PropOp38
 70
     1
102
RTVSPost2010Prop39
140
1.0
102
RTVSPost2010PropOp39
 70
     1
102
RTVSPost2010Prop40
 90
        0
102
RTVSPost2010PropOp40
 70
     1
102
RTVSPost2010Prop41ColorIndex
 90
       18
102
RTVSPost2010Prop41ColorRGB
 90
        0
102
RTVSPost2010PropOp41
 70
     1
102
RTVSPost2010Prop42
 90
       50
102
RTVSPost2010PropOp42
 70
     1
102
RTVSPost2010Prop43
 90
        3
102
RTVSPost2010PropOp43
 70
     1
102
RTVSPost2010Prop44ColorIndex
 90
        5
102
RTVSPost2010Prop44ColorRGB
 90
      255
102
RTVSPost2010PropOp44
 70
     1
102
RTVSPost2010Prop45
280
     0
102
RTVSPost2010PropOp45
 70
     1
102
RTVSPost2010Prop46
 90
       50
102
RTVSPost2010PropOp46
 70
     1
102
RTVSPost2010Prop47
 90
       50
102
RTVSPost2010PropOp47
 70
     1
102
RTVSPost2010Prop48
 90
       50
102
RTVSPost2010PropOp48
 70
     1
102
RTVSPost2010Prop49
280
     0
102
RTVSPost2010PropOp49
 70
     1
102
RTVSPost2010Prop50
 90
       50
102
RTVSPost2010PropOp50
 70
     1
102
RTVSPost2010Prop51ColorIndex
 90
      256
102
RTVSPost2010Prop51ColorRGB
 90
-16777216
102
RTVSPost2010PropOp51
 70
     0
102
RTVSPost2010Prop52
140
1.0
102
RTVSPost2010PropOp52
 70
     0
102
RTVSPost2010Prop53
 90
        2
102
RTVSPost2010PropOp53
 70
     1
102
RTVSPost2010Prop54
  1
strokes_ogs.tif
102
RTVSPost2010PropOp54
 70
     1
102
RTVSPost2010Prop55
280
     0
102
RTVSPost2010PropOp55
 70
     1
102
RTVSPost2010Prop56
140
1.0
102
RTVSPost2010PropOp56
 70
     1
102
RTVSPost2010Prop57
140
1.0
102
RTVSPost2010PropOp57
 70
     1
  0
XRECORD
  5
1B0
102
{ACAD_REACTORS
330
1AF
102
}
330
1AF
100
AcDbXrecord
280
     1
102
RTVSPropertyOp0
 70
     1
102
RTVSPropertyOp1
 70
     1
102
RTVSPropertyOp2
 70
     1
102
RTVSPropertyOp3
 70
     1
102
RTVSPropertyOp4
 70
     1
102
RTVSPropertyOp5
 70
     1
102
RTVSPropertyOp6
 70
     1
102
RTVSPropertyOp7
 70
     1
102
RTVSPropertyOp8
 70
     1
102
RTVSPropertyOp9
 70
     1
102
RTVSPropertyOp10
 70
     1
102
RTVSPropertyOp11
 70
     1
102
RTVSPropertyOp12
 70
     1
102
RTVSPropertyOp13
 70
     1
102
RTVSPropertyOp14
 70
     1
102
RTVSPropertyOp15
 70
     1
102
RTVSPropertyOp16
 70
     1
102
RTVSPropertyOp17
 70
     1
102
RTVSPropertyOp18
 70
     1
102
RTVSPropertyOp19
 70
     1
102
RTVSPropertyOp20
 70
     1
102
RTVSPropertyOp21
 70
     1
102
RTVSPropertyOp22
 70
     1
102
RTVSPropertyOp23
 70
     1
102
RTVSPropertyOp24
 70
     1
102
RTVSPropertyOp25
 70
     1
102
RTVSPropertyOp26
 70
     1
102
RTVSPropertyOp27
 70
     1
102
RTVSPropertyOp28
 70
     1
102
RTVSPropertyOp29
 70
     1
102
RTVSPropertyOp30
 70
     1
102
RTVSPropertyOp31
 70
     1
102
RTVSPropertyOp32
 70
     1
102
RTVSPropertyOp33
 70
     1
102
RTVSPropertyOp34
 70
     1
102
RTVSPropertyOp35
 70
     1
102
RTVSPropertyOp36
 70
     1
102
RTVSPropertyOp37
 70
     1
102
RTVSPropertyOp38
 70
     1
102
RTVSPropertyOp39
 70
     1
102
RTVSPropertyOp40
 70
     1
102
RTVSPropertyOp41
 70
     1
102
RTVSPropertyOp42
 70
     1
102
RTVSPropertyOp43
 70
     1
102
RTVSPropertyOp44
 70
     1
102
RTVSPropertyOp45
 70
     1
102
RTVSPropertyOp46
 70
     1
102
RTVSPropertyOp47
 70
     1
102
RTVSPropertyOp48
 70
     1
102
RTVSPropertyOp49
 70
     1
102
RTVSPropertyOp50
 70
     1
102
RTVSPropertyOp51
 70
     0
102
RTVSPropertyOp52
 70
     0
102
RTVSPropertyOp53
 70
     1
102
RTVSPropertyOp54
 70
     1
102
RTVSPropertyOp55
 70
     1
102
RTVSPropertyOp56
 70
     1
102
RTVSPropertyOp57
 70
     1
102
RTVSPost2010Prop28
280
     0
102
RTVSPost2010PropOp28
 70
     1
102
RTVSPost2010Prop29
280
     1
102
RTVSPost2010PropOp29
 70
     1
102
RTVSPost2010Prop30
280
     1
102
RTVSPost2010PropOp30
 70
     1
102
RTVSPost2010Prop31
280
     0
102
RTVSPost2010PropOp31
 70
     1
102
RTVSPost2010Prop32
280
     0
102
RTVSPost2010PropOp32
 70
     1
102
RTVSPost2010Prop33
280
     0
102
RTVSPost2010PropOp33
 70
     1
102
RTVSPost2010Prop34
280
     0
102
RTVSPost2010PropOp34
 70
     1
102
RTVSPost2010Prop35
280
     0
102
RTVSPost2010PropOp35
 70
     1
102
RTVSPost2010Prop36
280
     0
102
RTVSPost2010PropOp36
 70
     1
102
RTVSPost2010Prop37
 90
       50
102
RTVSPost2010PropOp37
 70
     1
102
RTVSPost2010Prop38
140
0.0
102
RTVSPost2010PropOp38
 70
     1
102
RTVSPost2010Prop39
140
1.0
102
RTVSPost2010PropOp39
 70
     1
102
RTVSPost2010Prop40
 90
        0
102
RTVSPost2010PropOp40
 70
     1
102
RTVSPost2010Prop41ColorIndex
 90
       18
102
RTVSPost2010Prop41ColorRGB
 90
        0
102
RTVSPost2010PropOp41
 70
     1
102
RTVSPost2010Prop42
 90
       50
102
RTVSPost2010PropOp42
 70
     1
102
RTVSPost2010Prop43
 90
        3
102
RTVSPost2010PropOp43
 70
     1
102
RTVSPost2010Prop44ColorIndex
 90
        5
102
RTVSPost2010Prop44ColorRGB
 90
      255
102
RTVSPost2010PropOp44
 70
     1
102
RTVSPost2010Prop45
280
     0
102
RTVSPost2010PropOp45
 70
     1
102
RTVSPost2010Prop46
 90
       50
102
RTVSPost2010PropOp46
 70
     1
102
RTVSPost2010Prop47
 90
       50
102
RTVSPost2010PropOp47
 70
     1
102
RTVSPost2010Prop48
 90
       50
102
RTVSPost2010PropOp48
 70
     1
102
RTVSPost2010Prop49
280
     0
102
RTVSPost2010PropOp49
 70
     1
102
RTVSPost2010Prop50
 90
       50
102
RTVSPost2010PropOp50
 70
     1
102
RTVSPost2010Prop51ColorIndex
 90
      256
102
RTVSPost2010Prop51ColorRGB
 90
-16777216
102
RTVSPost2010PropOp51
 70
     0
102
RTVSPost2010Prop52
140
1.0
102
RTVSPost2010PropOp52
 70
     0
102
RTVSPost2010Prop53
 90
        2
102
RTVSPost2010PropOp53
 70
     1
102
RTVSPost2010Prop54
  1
strokes_ogs.tif
102
RTVSPost2010PropOp54
 70
     1
102
RTVSPost2010Prop55
280
     0
102
RTVSPost2010PropOp55
 70
     1
102
RTVSPost2010Prop56
140
1.0
102
RTVSPost2010PropOp56
 70
     1
102
RTVSPost2010Prop57
140
1.0
102
RTVSPost2010PropOp57
 70
     1
  0
XRECORD
  5
1B6
102
{ACAD_REACTORS
330
1B5
102
}
330
1B5
100
AcDbXrecord
280
     1
102
RTVSPropertyOp0
 70
     1
102
RTVSPropertyOp1
 70
     1
102
RTVSPropertyOp2
 70
     1
102
RTVSPropertyOp3
 70
     1
102
RTVSPropertyOp4
 70
     1
102
RTVSPropertyOp5
 70
     1
102
RTVSPropertyOp6
 70
     1
102
RTVSPropertyOp7
 70
     1
102
RTVSPropertyOp8
 70
     1
102
RTVSPropertyOp9
 70
     1
102
RTVSPropertyOp10
 70
     1
102
RTVSPropertyOp11
 70
     1
102
RTVSPropertyOp12
 70
     1
102
RTVSPropertyOp13
 70
     1
102
RTVSPropertyOp14
 70
     1
102
RTVSPropertyOp15
 70
     1
102
RTVSPropertyOp16
 70
     1
102
RTVSPropertyOp17
 70
     1
102
RTVSPropertyOp18
 70
     1
102
RTVSPropertyOp19
 70
     1
102
RTVSPropertyOp20
 70
     1
102
RTVSPropertyOp21
 70
     1
102
RTVSPropertyOp22
 70
     1
102
RTVSPropertyOp23
 70
     1
102
RTVSPropertyOp24
 70
     1
102
RTVSPropertyOp25
 70
     1
102
RTVSPropertyOp26
 70
     1
102
RTVSPropertyOp27
 70
     1
102
RTVSPropertyOp28
 70
     1
102
RTVSPropertyOp29
 70
     1
102
RTVSPropertyOp30
 70
     1
102
RTVSPropertyOp31
 70
     1
102
RTVSPropertyOp32
 70
     1
102
RTVSPropertyOp33
 70
     1
102
RTVSPropertyOp34
 70
     1
102
RTVSPropertyOp35
 70
     1
102
RTVSPropertyOp36
 70
     1
102
RTVSPropertyOp37
 70
     1
102
RTVSPropertyOp38
 70
     1
102
RTVSPropertyOp39
 70
     1
102
RTVSPropertyOp40
 70
     1
102
RTVSPropertyOp41
 70
     1
102
RTVSPropertyOp42
 70
     1
102
RTVSPropertyOp43
 70
     1
102
RTVSPropertyOp44
 70
     1
102
RTVSPropertyOp45
 70
     1
102
RTVSPropertyOp46
 70
     1
102
RTVSPropertyOp47
 70
     1
102
RTVSPropertyOp48
 70
     1
102
RTVSPropertyOp49
 70
     1
102
RTVSPropertyOp50
 70
     1
102
RTVSPropertyOp51
 70
     0
102
RTVSPropertyOp52
 70
     0
102
RTVSPropertyOp53
 70
     1
102
RTVSPropertyOp54
 70
     1
102
RTVSPropertyOp55
 70
     1
102
RTVSPropertyOp56
 70
     1
102
RTVSPropertyOp57
 70
     1
102
RTVSPost2010Prop28
280
     0
102
RTVSPost2010PropOp28
 70
     1
102
RTVSPost2010Prop29
280
     1
102
RTVSPost2010PropOp29
 70
     1
102
RTVSPost2010Prop30
280
     1
102
RTVSPost2010PropOp30
 70
     1
102
RTVSPost2010Prop31
280
     0
102
RTVSPost2010PropOp31
 70
     1
102
RTVSPost2010Prop32
280
     0
102
RTVSPost2010PropOp32
 70
     1
102
RTVSPost2010Prop33
280
     0
102
RTVSPost2010PropOp33
 70
     1
102
RTVSPost2010Prop34
280
     0
102
RTVSPost2010PropOp34
 70
     1
102
RTVSPost2010Prop35
280
     0
102
RTVSPost2010PropOp35
 70
     1
102
RTVSPost2010Prop36
280
     0
102
RTVSPost2010PropOp36
 70
     1
102
RTVSPost2010Prop37
 90
       50
102
RTVSPost2010PropOp37
 70
     1
102
RTVSPost2010Prop38
140
0.0
102
RTVSPost2010PropOp38
 70
     1
102
RTVSPost2010Prop39
140
1.0
102
RTVSPost2010PropOp39
 70
     1
102
RTVSPost2010Prop40
 90
        0
102
RTVSPost2010PropOp40
 70
     1
102
RTVSPost2010Prop41ColorIndex
 90
       18
102
RTVSPost2010Prop41ColorRGB
 90
        0
102
RTVSPost2010PropOp41
 70
     1
102
RTVSPost2010Prop42
 90
       50
102
RTVSPost2010PropOp42
 70
     1
102
RTVSPost2010Prop43
 90
        3
102
RTVSPost2010PropOp43
 70
     1
102
RTVSPost2010Prop44ColorIndex
 90
        5
102
RTVSPost2010Prop44ColorRGB
 90
      255
102
RTVSPost2010PropOp44
 70
     1
102
RTVSPost2010Prop45
280
     0
102
RTVSPost2010PropOp45
 70
     1
102
RTVSPost2010Prop46
 90
       50
102
RTVSPost2010PropOp46
 70
     1
102
RTVSPost2010Prop47
 90
       50
102
RTVSPost2010PropOp47
 70
     1
102
RTVSPost2010Prop48
 90
       50
102
RTVSPost2010PropOp48
 70
     1
102
RTVSPost2010Prop49
280
     0
102
RTVSPost2010PropOp49
 70
     1
102
RTVSPost2010Prop50
 90
       50
102
RTVSPost2010PropOp50
 70
     1
102
RTVSPost2010Prop51ColorIndex
 90
      256
102
RTVSPost2010Prop51ColorRGB
 90
-16777216
102
RTVSPost2010PropOp51
 70
     0
102
RTVSPost2010Prop52
140
1.0
102
RTVSPost2010PropOp52
 70
     0
102
RTVSPost2010Prop53
 90
        2
102
RTVSPost2010PropOp53
 70
     1
102
RTVSPost2010Prop54
  1
strokes_ogs.tif
102
RTVSPost2010PropOp54
 70
     1
102
RTVSPost2010Prop55
280
     0
102
RTVSPost2010PropOp55
 70
     1
102
RTVSPost2010Prop56
140
1.0
102
RTVSPost2010PropOp56
 70
     1
102
RTVSPost2010Prop57
140
1.0
102
RTVSPost2010PropOp57
 70
     1
  0
XRECORD
  5
1CA
102
{ACAD_REACTORS
330
1C9
102
}
330
1C9
100
AcDbXrecord
280
     1
102
RTVSPropertyOp0
 70
     0
102
RTVSPropertyOp1
 70
     0
102
RTVSPropertyOp2
 70
     0
102
RTVSPropertyOp3
 70
     0
102
RTVSPropertyOp4
 70
     0
102
RTVSPropertyOp5
 70
     0
102
RTVSPropertyOp6
 70
     0
102
RTVSPropertyOp7
 70
     0
102
RTVSPropertyOp8
 70
     0
102
RTVSPropertyOp9
 70
     0
102
RTVSPropertyOp10
 70
     0
102
RTVSPropertyOp11
 70
     0
102
RTVSPropertyOp12
 70
     0
102
RTVSPropertyOp13
 70
     0
102
RTVSPropertyOp14
 70
     2
102
RTVSPropertyOp15
 70
     0
102
RTVSPropertyOp16
 70
     0
102
RTVSPropertyOp17
 70
     0
102
RTVSPropertyOp18
 70
     0
102
RTVSPropertyOp19
 70
     0
102
RTVSPropertyOp20
 70
     0
102
RTVSPropertyOp21
 70
     0
102
RTVSPropertyOp22
 70
     0
102
RTVSPropertyOp23
 70
     0
102
RTVSPropertyOp24
 70
     0
102
RTVSPropertyOp25
 70
     0
102
RTVSPropertyOp26
 70
     0
102
RTVSPropertyOp27
 70
     0
102
RTVSPropertyOp28
 70
     0
102
RTVSPropertyOp29
 70
     0
102
RTVSPropertyOp30
 70
     0
102
RTVSPropertyOp31
 70
     0
102
RTVSPropertyOp32
 70
     0
102
RTVSPropertyOp33
 70
     0
102
RTVSPropertyOp34
 70
     0
102
RTVSPropertyOp35
 70
     0
102
RTVSPropertyOp36
 70
     0
102
RTVSPropertyOp37
 70
     0
102
RTVSPropertyOp38
 70
     0
102
RTVSPropertyOp39
 70
     0
102
RTVSPropertyOp40
 70
     0
102
RTVSPropertyOp41
 70
     0
102
RTVSPropertyOp42
 70
     0
102
RTVSPropertyOp43
 70
     0
102
RTVSPropertyOp44
 70
     0
102
RTVSPropertyOp45
 70
     0
102
RTVSPropertyOp46
 70
     0
102
RTVSPropertyOp47
 70
     0
102
RTVSPropertyOp48
 70
     0
102
RTVSPropertyOp49
 70
     0
102
RTVSPropertyOp50
 70
     0
102
RTVSPropertyOp51
 70
     0
102
RTVSPropertyOp52
 70
     0
102
RTVSPropertyOp53
 70
     0
102
RTVSPropertyOp54
 70
     0
102
RTVSPropertyOp55
 70
     0
102
RTVSPropertyOp56
 70
     0
102
RTVSPropertyOp57
 70
     0
102
RTVSPost2010Prop28
280
     0
102
RTVSPost2010PropOp28
 70
     0
102
RTVSPost2010Prop29
280
     1
102
RTVSPost2010PropOp29
 70
     0
102
RTVSPost2010Prop30
280
     1
102
RTVSPost2010PropOp30
 70
     0
102
RTVSPost2010Prop31
280
     0
102
RTVSPost2010PropOp31
 70
     0
102
RTVSPost2010Prop32
280
     0
102
RTVSPost2010PropOp32
 70
     0
102
RTVSPost2010Prop33
280
     0
102
RTVSPost2010PropOp33
 70
     0
102
RTVSPost2010Prop34
280
     0
102
RTVSPost2010PropOp34
 70
     0
102
RTVSPost2010Prop35
280
     0
102
RTVSPost2010PropOp35
 70
     0
102
RTVSPost2010Prop36
280
     0
102
RTVSPost2010PropOp36
 70
     0
102
RTVSPost2010Prop37
 90
       50
102
RTVSPost2010PropOp37
 70
     0
102
RTVSPost2010Prop38
140
0.0
102
RTVSPost2010PropOp38
 70
     0
102
RTVSPost2010Prop39
140
1.0
102
RTVSPost2010PropOp39
 70
     0
102
RTVSPost2010Prop40
 90
        0
102
RTVSPost2010PropOp40
 70
     0
102
RTVSPost2010Prop41ColorIndex
 90
       18
102
RTVSPost2010Prop41ColorRGB
 90
        0
102
RTVSPost2010PropOp41
 70
     0
102
RTVSPost2010Prop42
 90
       50
102
RTVSPost2010PropOp42
 70
     0
102
RTVSPost2010Prop43
 90
        3
102
RTVSPost2010PropOp43
 70
     0
102
RTVSPost2010Prop44ColorIndex
 90
        5
102
RTVSPost2010Prop44ColorRGB
 90
      255
102
RTVSPost2010PropOp44
 70
     0
102
RTVSPost2010Prop45
280
     0
102
RTVSPost2010PropOp45
 70
     0
102
RTVSPost2010Prop46
 90
       50
102
RTVSPost2010PropOp46
 70
     0
102
RTVSPost2010Prop47
 90
       50
102
RTVSPost2010PropOp47
 70
     0
102
RTVSPost2010Prop48
 90
       50
102
RTVSPost2010PropOp48
 70
     0
102
RTVSPost2010Prop49
280
     0
102
RTVSPost2010PropOp49
 70
     0
102
RTVSPost2010Prop50
 90
       50
102
RTVSPost2010PropOp50
 70
     0
102
RTVSPost2010Prop51ColorIndex
 90
      256
102
RTVSPost2010Prop51ColorRGB
 90
-16777216
102
RTVSPost2010PropOp51
 70
     0
102
RTVSPost2010Prop52
140
1.0
102
RTVSPost2010PropOp52
 70
     0
102
RTVSPost2010Prop53
 90
        2
102
RTVSPost2010PropOp53
 70
     0
102
RTVSPost2010Prop54
  1
strokes_ogs.tif
102
RTVSPost2010PropOp54
 70
     0
102
RTVSPost2010Prop55
280
     0
102
RTVSPost2010PropOp55
 70
     0
102
RTVSPost2010Prop56
140
1.0
102
RTVSPost2010PropOp56
 70
     0
102
RTVSPost2010Prop57
140
1.0
102
RTVSPost2010PropOp57
 70
     0
  0
XRECORD
  5
1C4
102
{ACAD_REACTORS
330
1C3
102
}
330
1C3
100
AcDbXrecord
280
     1
102
RTVSPropertyOp0
 70
     1
102
RTVSPropertyOp1
 70
     1
102
RTVSPropertyOp2
 70
     1
102
RTVSPropertyOp3
 70
     1
102
RTVSPropertyOp4
 70
     1
102
RTVSPropertyOp5
 70
     1
102
RTVSPropertyOp6
 70
     1
102
RTVSPropertyOp7
 70
     1
102
RTVSPropertyOp8
 70
     1
102
RTVSPropertyOp9
 70
     1
102
RTVSPropertyOp10
 70
     1
102
RTVSPropertyOp11
 70
     1
102
RTVSPropertyOp12
 70
     1
102
RTVSPropertyOp13
 70
     1
102
RTVSPropertyOp14
 70
     1
102
RTVSPropertyOp15
 70
     1
102
RTVSPropertyOp16
 70
     1
102
RTVSPropertyOp17
 70
     1
102
RTVSPropertyOp18
 70
     1
102
RTVSPropertyOp19
 70
     1
102
RTVSPropertyOp20
 70
     1
102
RTVSPropertyOp21
 70
     1
102
RTVSPropertyOp22
 70
     1
102
RTVSPropertyOp23
 70
     1
102
RTVSPropertyOp24
 70
     1
102
RTVSPropertyOp25
 70
     1
102
RTVSPropertyOp26
 70
     1
102
RTVSPropertyOp27
 70
     1
102
RTVSPropertyOp28
 70
     1
102
RTVSPropertyOp29
 70
     1
102
RTVSPropertyOp30
 70
     1
102
RTVSPropertyOp31
 70
     1
102
RTVSPropertyOp32
 70
     1
102
RTVSPropertyOp33
 70
     1
102
RTVSPropertyOp34
 70
     1
102
RTVSPropertyOp35
 70
     1
102
RTVSPropertyOp36
 70
     1
102
RTVSPropertyOp37
 70
     1
102
RTVSPropertyOp38
 70
     1
102
RTVSPropertyOp39
 70
     1
102
RTVSPropertyOp40
 70
     1
102
RTVSPropertyOp41
 70
     1
102
RTVSPropertyOp42
 70
     1
102
RTVSPropertyOp43
 70
     1
102
RTVSPropertyOp44
 70
     1
102
RTVSPropertyOp45
 70
     1
102
RTVSPropertyOp46
 70
     1
102
RTVSPropertyOp47
 70
     1
102
RTVSPropertyOp48
 70
     1
102
RTVSPropertyOp49
 70
     1
102
RTVSPropertyOp50
 70
     1
102
RTVSPropertyOp51
 70
     0
102
RTVSPropertyOp52
 70
     0
102
RTVSPropertyOp53
 70
     1
102
RTVSPropertyOp54
 70
     1
102
RTVSPropertyOp55
 70
     1
102
RTVSPropertyOp56
 70
     1
102
RTVSPropertyOp57
 70
     1
102
RTVSPost2010Prop28
280
     0
102
RTVSPost2010PropOp28
 70
     1
102
RTVSPost2010Prop29
280
     1
102
RTVSPost2010PropOp29
 70
     1
102
RTVSPost2010Prop30
280
     1
102
RTVSPost2010PropOp30
 70
     1
102
RTVSPost2010Prop31
280
     0
102
RTVSPost2010PropOp31
 70
     1
102
RTVSPost2010Prop32
280
     0
102
RTVSPost2010PropOp32
 70
     1
102
RTVSPost2010Prop33
280
     0
102
RTVSPost2010PropOp33
 70
     1
102
RTVSPost2010Prop34
280
     0
102
RTVSPost2010PropOp34
 70
     1
102
RTVSPost2010Prop35
280
     0
102
RTVSPost2010PropOp35
 70
     1
102
RTVSPost2010Prop36
280
     0
102
RTVSPost2010PropOp36
 70
     1
102
RTVSPost2010Prop37
 90
       50
102
RTVSPost2010PropOp37
 70
     1
102
RTVSPost2010Prop38
140
0.0
102
RTVSPost2010PropOp38
 70
     1
102
RTVSPost2010Prop39
140
1.0
102
RTVSPost2010PropOp39
 70
     1
102
RTVSPost2010Prop40
 90
        0
102
RTVSPost2010PropOp40
 70
     1
102
RTVSPost2010Prop41ColorIndex
 90
       18
102
RTVSPost2010Prop41ColorRGB
 90
        0
102
RTVSPost2010PropOp41
 70
     1
102
RTVSPost2010Prop42
 90
       50
102
RTVSPost2010PropOp42
 70
     1
102
RTVSPost2010Prop43
 90
        3
102
RTVSPost2010PropOp43
 70
     1
102
RTVSPost2010Prop44ColorIndex
 90
        5
102
RTVSPost2010Prop44ColorRGB
 90
      255
102
RTVSPost2010PropOp44
 70
     1
102
RTVSPost2010Prop45
280
     0
102
RTVSPost2010PropOp45
 70
     1
102
RTVSPost2010Prop46
 90
       50
102
RTVSPost2010PropOp46
 70
     1
102
RTVSPost2010Prop47
 90
       50
102
RTVSPost2010PropOp47
 70
     1
102
RTVSPost2010Prop48
 90
       50
102
RTVSPost2010PropOp48
 70
     1
102
RTVSPost2010Prop49
280
     0
102
RTVSPost2010PropOp49
 70
     1
102
RTVSPost2010Prop50
 90
       50
102
RTVSPost2010PropOp50
 70
     1
102
RTVSPost2010Prop51ColorIndex
 90
      256
102
RTVSPost2010Prop51ColorRGB
 90
-16777216
102
RTVSPost2010PropOp51
 70
     0
102
RTVSPost2010Prop52
140
1.0
102
RTVSPost2010PropOp52
 70
     0
102
RTVSPost2010Prop53
 90
        2
102
RTVSPost2010PropOp53
 70
     1
102
RTVSPost2010Prop54
  1
strokes_ogs.tif
102
RTVSPost2010PropOp54
 70
     1
102
RTVSPost2010Prop55
280
     0
102
RTVSPost2010PropOp55
 70
     1
102
RTVSPost2010Prop56
140
1.0
102
RTVSPost2010PropOp56
 70
     1
102
RTVSPost2010Prop57
140
1.0
102
RTVSPost2010PropOp57
 70
     1
  0
XRECORD
  5
1CC
102
{ACAD_REACTORS
330
1CB
102
}
330
1CB
100
AcDbXrecord
280
     1
102
RTVSPropertyOp0
 70
     0
102
RTVSPropertyOp1
 70
     0
102
RTVSPropertyOp2
 70
     0
102
RTVSPropertyOp3
 70
     0
102
RTVSPropertyOp4
 70
     0
102
RTVSPropertyOp5
 70
     0
102
RTVSPropertyOp6
 70
     0
102
RTVSPropertyOp7
 70
     0
102
RTVSPropertyOp8
 70
     0
102
RTVSPropertyOp9
 70
     0
102
RTVSPropertyOp10
 70
     0
102
RTVSPropertyOp11
 70
     0
102
RTVSPropertyOp12
 70
     0
102
RTVSPropertyOp13
 70
     0
102
RTVSPropertyOp14
 70
     2
102
RTVSPropertyOp15
 70
     0
102
RTVSPropertyOp16
 70
     0
102
RTVSPropertyOp17
 70
     0
102
RTVSPropertyOp18
 70
     0
102
RTVSPropertyOp19
 70
     0
102
RTVSPropertyOp20
 70
     0
102
RTVSPropertyOp21
 70
     0
102
RTVSPropertyOp22
 70
     0
102
RTVSPropertyOp23
 70
     0
102
RTVSPropertyOp24
 70
     0
102
RTVSPropertyOp25
 70
     0
102
RTVSPropertyOp26
 70
     0
102
RTVSPropertyOp27
 70
     0
102
RTVSPropertyOp28
 70
     0
102
RTVSPropertyOp29
 70
     0
102
RTVSPropertyOp30
 70
     0
102
RTVSPropertyOp31
 70
     0
102
RTVSPropertyOp32
 70
     0
102
RTVSPropertyOp33
 70
     0
102
RTVSPropertyOp34
 70
     0
102
RTVSPropertyOp35
 70
     0
102
RTVSPropertyOp36
 70
     0
102
RTVSPropertyOp37
 70
     0
102
RTVSPropertyOp38
 70
     0
102
RTVSPropertyOp39
 70
     0
102
RTVSPropertyOp40
 70
     0
102
RTVSPropertyOp41
 70
     0
102
RTVSPropertyOp42
 70
     0
102
RTVSPropertyOp43
 70
     0
102
RTVSPropertyOp44
 70
     0
102
RTVSPropertyOp45
 70
     0
102
RTVSPropertyOp46
 70
     0
102
RTVSPropertyOp47
 70
     0
102
RTVSPropertyOp48
 70
     0
102
RTVSPropertyOp49
 70
     0
102
RTVSPropertyOp50
 70
     0
102
RTVSPropertyOp51
 70
     0
102
RTVSPropertyOp52
 70
     0
102
RTVSPropertyOp53
 70
     0
102
RTVSPropertyOp54
 70
     0
102
RTVSPropertyOp55
 70
     0
102
RTVSPropertyOp56
 70
     0
102
RTVSPropertyOp57
 70
     0
102
RTVSPost2010Prop28
280
     0
102
RTVSPost2010PropOp28
 70
     0
102
RTVSPost2010Prop29
280
     1
102
RTVSPost2010PropOp29
 70
     0
102
RTVSPost2010Prop30
280
     1
102
RTVSPost2010PropOp30
 70
     0
102
RTVSPost2010Prop31
280
     0
102
RTVSPost2010PropOp31
 70
     0
102
RTVSPost2010Prop32
280
     0
102
RTVSPost2010PropOp32
 70
     0
102
RTVSPost2010Prop33
280
     0
102
RTVSPost2010PropOp33
 70
     0
102
RTVSPost2010Prop34
280
     0
102
RTVSPost2010PropOp34
 70
     0
102
RTVSPost2010Prop35
280
     0
102
RTVSPost2010PropOp35
 70
     0
102
RTVSPost2010Prop36
280
     0
102
RTVSPost2010PropOp36
 70
     0
102
RTVSPost2010Prop37
 90
       50
102
RTVSPost2010PropOp37
 70
     0
102
RTVSPost2010Prop38
140
0.0
102
RTVSPost2010PropOp38
 70
     0
102
RTVSPost2010Prop39
140
1.0
102
RTVSPost2010PropOp39
 70
     0
102
RTVSPost2010Prop40
 90
        0
102
RTVSPost2010PropOp40
 70
     0
102
RTVSPost2010Prop41ColorIndex
 90
       18
102
RTVSPost2010Prop41ColorRGB
 90
        0
102
RTVSPost2010PropOp41
 70
     0
102
RTVSPost2010Prop42
 90
       50
102
RTVSPost2010PropOp42
 70
     0
102
RTVSPost2010Prop43
 90
        3
102
RTVSPost2010PropOp43
 70
     0
102
RTVSPost2010Prop44ColorIndex
 90
        5
102
RTVSPost2010Prop44ColorRGB
 90
      255
102
RTVSPost2010PropOp44
 70
     0
102
RTVSPost2010Prop45
280
     0
102
RTVSPost2010PropOp45
 70
     0
102
RTVSPost2010Prop46
 90
       50
102
RTVSPost2010PropOp46
 70
     0
102
RTVSPost2010Prop47
 90
       50
102
RTVSPost2010PropOp47
 70
     0
102
RTVSPost2010Prop48
 90
       50
102
RTVSPost2010PropOp48
 70
     0
102
RTVSPost2010Prop49
280
     0
102
RTVSPost2010PropOp49
 70
     0
102
RTVSPost2010Prop50
 90
       50
102
RTVSPost2010PropOp50
 70
     0
102
RTVSPost2010Prop51ColorIndex
 90
      256
102
RTVSPost2010Prop51ColorRGB
 90
-16777216
102
RTVSPost2010PropOp51
 70
     0
102
RTVSPost2010Prop52
140
1.0
102
RTVSPost2010PropOp52
 70
     0
102
RTVSPost2010Prop53
 90
        2
102
RTVSPost2010PropOp53
 70
     0
102
RTVSPost2010Prop54
  1
strokes_ogs.tif
102
RTVSPost2010PropOp54
 70
     0
102
RTVSPost2010Prop55
280
     0
102
RTVSPost2010PropOp55
 70
     0
102
RTVSPost2010Prop56
140
1.0
102
RTVSPost2010PropOp56
 70
     0
102
RTVSPost2010Prop57
140
1.0
102
RTVSPost2010PropOp57
 70
     0
  0
XRECORD
  5
1BA
102
{ACAD_REACTORS
330
1B9
102
}
330
1B9
100
AcDbXrecord
280
     1
102
RTVSPropertyOp0
 70
     1
102
RTVSPropertyOp1
 70
     1
102
RTVSPropertyOp2
 70
     1
102
RTVSPropertyOp3
 70
     1
102
RTVSPropertyOp4
 70
     1
102
RTVSPropertyOp5
 70
     1
102
RTVSPropertyOp6
 70
     1
102
RTVSPropertyOp7
 70
     1
102
RTVSPropertyOp8
 70
     1
102
RTVSPropertyOp9
 70
     1
102
RTVSPropertyOp10
 70
     1
102
RTVSPropertyOp11
 70
     1
102
RTVSPropertyOp12
 70
     1
102
RTVSPropertyOp13
 70
     1
102
RTVSPropertyOp14
 70
     1
102
RTVSPropertyOp15
 70
     1
102
RTVSPropertyOp16
 70
     1
102
RTVSPropertyOp17
 70
     1
102
RTVSPropertyOp18
 70
     1
102
RTVSPropertyOp19
 70
     1
102
RTVSPropertyOp20
 70
     1
102
RTVSPropertyOp21
 70
     1
102
RTVSPropertyOp22
 70
     1
102
RTVSPropertyOp23
 70
     1
102
RTVSPropertyOp24
 70
     1
102
RTVSPropertyOp25
 70
     1
102
RTVSPropertyOp26
 70
     1
102
RTVSPropertyOp27
 70
     1
102
RTVSPropertyOp28
 70
     1
102
RTVSPropertyOp29
 70
     1
102
RTVSPropertyOp30
 70
     1
102
RTVSPropertyOp31
 70
     1
102
RTVSPropertyOp32
 70
     1
102
RTVSPropertyOp33
 70
     1
102
RTVSPropertyOp34
 70
     1
102
RTVSPropertyOp35
 70
     1
102
RTVSPropertyOp36
 70
     1
102
RTVSPropertyOp37
 70
     1
102
RTVSPropertyOp38
 70
     1
102
RTVSPropertyOp39
 70
     1
102
RTVSPropertyOp40
 70
     1
102
RTVSPropertyOp41
 70
     1
102
RTVSPropertyOp42
 70
     1
102
RTVSPropertyOp43
 70
     1
102
RTVSPropertyOp44
 70
     1
102
RTVSPropertyOp45
 70
     1
102
RTVSPropertyOp46
 70
     1
102
RTVSPropertyOp47
 70
     1
102
RTVSPropertyOp48
 70
     1
102
RTVSPropertyOp49
 70
     1
102
RTVSPropertyOp50
 70
     1
102
RTVSPropertyOp51
 70
     0
102
RTVSPropertyOp52
 70
     0
102
RTVSPropertyOp53
 70
     1
102
RTVSPropertyOp54
 70
     1
102
RTVSPropertyOp55
 70
     1
102
RTVSPropertyOp56
 70
     1
102
RTVSPropertyOp57
 70
     1
102
RTVSPost2010Prop28
280
     0
102
RTVSPost2010PropOp28
 70
     1
102
RTVSPost2010Prop29
280
     1
102
RTVSPost2010PropOp29
 70
     1
102
RTVSPost2010Prop30
280
     1
102
RTVSPost2010PropOp30
 70
     1
102
RTVSPost2010Prop31
280
     0
102
RTVSPost2010PropOp31
 70
     1
102
RTVSPost2010Prop32
280
     0
102
RTVSPost2010PropOp32
 70
     1
102
RTVSPost2010Prop33
280
     0
102
RTVSPost2010PropOp33
 70
     1
102
RTVSPost2010Prop34
280
     0
102
RTVSPost2010PropOp34
 70
     1
102
RTVSPost2010Prop35
280
     0
102
RTVSPost2010PropOp35
 70
     1
102
RTVSPost2010Prop36
280
     0
102
RTVSPost2010PropOp36
 70
     1
102
RTVSPost2010Prop37
 90
       50
102
RTVSPost2010PropOp37
 70
     1
102
RTVSPost2010Prop38
140
0.0
102
RTVSPost2010PropOp38
 70
     1
102
RTVSPost2010Prop39
140
1.0
102
RTVSPost2010PropOp39
 70
     1
102
RTVSPost2010Prop40
 90
        0
102
RTVSPost2010PropOp40
 70
     1
102
RTVSPost2010Prop41ColorIndex
 90
       18
102
RTVSPost2010Prop41ColorRGB
 90
        0
102
RTVSPost2010PropOp41
 70
     1
102
RTVSPost2010Prop42
 90
       50
102
RTVSPost2010PropOp42
 70
     1
102
RTVSPost2010Prop43
 90
        3
102
RTVSPost2010PropOp43
 70
     1
102
RTVSPost2010Prop44ColorIndex
 90
        5
102
RTVSPost2010Prop44ColorRGB
 90
      255
102
RTVSPost2010PropOp44
 70
     1
102
RTVSPost2010Prop45
280
     0
102
RTVSPost2010PropOp45
 70
     1
102
RTVSPost2010Prop46
 90
       50
102
RTVSPost2010PropOp46
 70
     1
102
RTVSPost2010Prop47
 90
       50
102
RTVSPost2010PropOp47
 70
     1
102
RTVSPost2010Prop48
 90
       50
102
RTVSPost2010PropOp48
 70
     1
102
RTVSPost2010Prop49
280
     0
102
RTVSPost2010PropOp49
 70
     1
102
RTVSPost2010Prop50
 90
       50
102
RTVSPost2010PropOp50
 70
     1
102
RTVSPost2010Prop51ColorIndex
 90
      256
102
RTVSPost2010Prop51ColorRGB
 90
-16777216
102
RTVSPost2010PropOp51
 70
     0
102
RTVSPost2010Prop52
140
1.0
102
RTVSPost2010PropOp52
 70
     0
102
RTVSPost2010Prop53
 90
        2
102
RTVSPost2010PropOp53
 70
     1
102
RTVSPost2010Prop54
  1
strokes_ogs.tif
102
RTVSPost2010PropOp54
 70
     1
102
RTVSPost2010Prop55
280
     0
102
RTVSPost2010PropOp55
 70
     1
102
RTVSPost2010Prop56
140
1.0
102
RTVSPost2010PropOp56
 70
     1
102
RTVSPost2010Prop57
140
1.0
102
RTVSPost2010PropOp57
 70
     1
  0
XRECORD
  5
1D8
102
{ACAD_REACTORS
330
1D7
102
}
330
1D7
100
AcDbXrecord
280
     1
102
RTVSPropertyOp0
 70
     1
102
RTVSPropertyOp1
 70
     1
102
RTVSPropertyOp2
 70
     1
102
RTVSPropertyOp3
 70
     1
102
RTVSPropertyOp4
 70
     1
102
RTVSPropertyOp5
 70
     1
102
RTVSPropertyOp6
 70
     1
102
RTVSPropertyOp7
 70
     1
102
RTVSPropertyOp8
 70
     1
102
RTVSPropertyOp9
 70
     1
102
RTVSPropertyOp10
 70
     1
102
RTVSPropertyOp11
 70
     1
102
RTVSPropertyOp12
 70
     1
102
RTVSPropertyOp13
 70
     1
102
RTVSPropertyOp14
 70
     1
102
RTVSPropertyOp15
 70
     1
102
RTVSPropertyOp16
 70
     1
102
RTVSPropertyOp17
 70
     1
102
RTVSPropertyOp18
 70
     1
102
RTVSPropertyOp19
 70
     1
102
RTVSPropertyOp20
 70
     1
102
RTVSPropertyOp21
 70
     1
102
RTVSPropertyOp22
 70
     1
102
RTVSPropertyOp23
 70
     1
102
RTVSPropertyOp24
 70
     1
102
RTVSPropertyOp25
 70
     1
102
RTVSPropertyOp26
 70
     1
102
RTVSPropertyOp27
 70
     1
102
RTVSPropertyOp28
 70
     1
102
RTVSPropertyOp29
 70
     1
102
RTVSPropertyOp30
 70
     1
102
RTVSPropertyOp31
 70
     1
102
RTVSPropertyOp32
 70
     1
102
RTVSPropertyOp33
 70
     1
102
RTVSPropertyOp34
 70
     1
102
RTVSPropertyOp35
 70
     1
102
RTVSPropertyOp36
 70
     1
102
RTVSPropertyOp37
 70
     1
102
RTVSPropertyOp38
 70
     1
102
RTVSPropertyOp39
 70
     1
102
RTVSPropertyOp40
 70
     1
102
RTVSPropertyOp41
 70
     1
102
RTVSPropertyOp42
 70
     1
102
RTVSPropertyOp43
 70
     1
102
RTVSPropertyOp44
 70
     1
102
RTVSPropertyOp45
 70
     1
102
RTVSPropertyOp46
 70
     1
102
RTVSPropertyOp47
 70
     1
102
RTVSPropertyOp48
 70
     1
102
RTVSPropertyOp49
 70
     1
102
RTVSPropertyOp50
 70
     1
102
RTVSPropertyOp51
 70
     0
102
RTVSPropertyOp52
 70
     0
102
RTVSPropertyOp53
 70
     1
102
RTVSPropertyOp54
 70
     1
102
RTVSPropertyOp55
 70
     1
102
RTVSPropertyOp56
 70
     1
102
RTVSPropertyOp57
 70
     1
102
RTVSPost2010Prop28
280
     0
102
RTVSPost2010PropOp28
 70
     1
102
RTVSPost2010Prop29
280
     1
102
RTVSPost2010PropOp29
 70
     1
102
RTVSPost2010Prop30
280
     1
102
RTVSPost2010PropOp30
 70
     1
102
RTVSPost2010Prop31
280
     0
102
RTVSPost2010PropOp31
 70
     1
102
RTVSPost2010Prop32
280
     0
102
RTVSPost2010PropOp32
 70
     1
102
RTVSPost2010Prop33
280
     0
102
RTVSPost2010PropOp33
 70
     1
102
RTVSPost2010Prop34
280
     0
102
RTVSPost2010PropOp34
 70
     1
102
RTVSPost2010Prop35
280
     0
102
RTVSPost2010PropOp35
 70
     1
102
RTVSPost2010Prop36
280
     0
102
RTVSPost2010PropOp36
 70
     1
102
RTVSPost2010Prop37
 90
       50
102
RTVSPost2010PropOp37
 70
     1
102
RTVSPost2010Prop38
140
0.0
102
RTVSPost2010PropOp38
 70
     1
102
RTVSPost2010Prop39
140
1.0
102
RTVSPost2010PropOp39
 70
     1
102
RTVSPost2010Prop40
 90
        0
102
RTVSPost2010PropOp40
 70
     1
102
RTVSPost2010Prop41ColorIndex
 90
       18
102
RTVSPost2010Prop41ColorRGB
 90
        0
102
RTVSPost2010PropOp41
 70
     1
102
RTVSPost2010Prop42
 90
       50
102
RTVSPost2010PropOp42
 70
     1
102
RTVSPost2010Prop43
 90
        3
102
RTVSPost2010PropOp43
 70
     1
102
RTVSPost2010Prop44ColorIndex
 90
        5
102
RTVSPost2010Prop44ColorRGB
 90
      255
102
RTVSPost2010PropOp44
 70
     1
102
RTVSPost2010Prop45
280
     0
102
RTVSPost2010PropOp45
 70
     1
102
RTVSPost2010Prop46
 90
       50
102
RTVSPost2010PropOp46
 70
     1
102
RTVSPost2010Prop47
 90
       50
102
RTVSPost2010PropOp47
 70
     1
102
RTVSPost2010Prop48
 90
       50
102
RTVSPost2010PropOp48
 70
     1
102
RTVSPost2010Prop49
280
     0
102
RTVSPost2010PropOp49
 70
     1
102
RTVSPost2010Prop50
 90
       50
102
RTVSPost2010PropOp50
 70
     1
102
RTVSPost2010Prop51ColorIndex
 90
      256
102
RTVSPost2010Prop51ColorRGB
 90
-16777216
102
RTVSPost2010PropOp51
 70
     0
102
RTVSPost2010Prop52
140
1.0
102
RTVSPost2010PropOp52
 70
     0
102
RTVSPost2010Prop53
 90
        2
102
RTVSPost2010PropOp53
 70
     1
102
RTVSPost2010Prop54
  1
strokes_ogs.tif
102
RTVSPost2010PropOp54
 70
     1
102
RTVSPost2010Prop55
280
     0
102
RTVSPost2010PropOp55
 70
     1
102
RTVSPost2010Prop56
140
1.0
102
RTVSPost2010PropOp56
 70
     1
102
RTVSPost2010Prop57
140
1.0
102
RTVSPost2010PropOp57
 70
     1
  0
XRECORD
  5
1D6
102
{ACAD_REACTORS
330
1D5
102
}
330
1D5
100
AcDbXrecord
280
     1
102
RTVSPropertyOp0
 70
     1
102
RTVSPropertyOp1
 70
     1
102
RTVSPropertyOp2
 70
     1
102
RTVSPropertyOp3
 70
     1
102
RTVSPropertyOp4
 70
     1
102
RTVSPropertyOp5
 70
     1
102
RTVSPropertyOp6
 70
     1
102
RTVSPropertyOp7
 70
     1
102
RTVSPropertyOp8
 70
     1
102
RTVSPropertyOp9
 70
     1
102
RTVSPropertyOp10
 70
     1
102
RTVSPropertyOp11
 70
     1
102
RTVSPropertyOp12
 70
     1
102
RTVSPropertyOp13
 70
     1
102
RTVSPropertyOp14
 70
     1
102
RTVSPropertyOp15
 70
     1
102
RTVSPropertyOp16
 70
     1
102
RTVSPropertyOp17
 70
     1
102
RTVSPropertyOp18
 70
     1
102
RTVSPropertyOp19
 70
     1
102
RTVSPropertyOp20
 70
     1
102
RTVSPropertyOp21
 70
     1
102
RTVSPropertyOp22
 70
     1
102
RTVSPropertyOp23
 70
     1
102
RTVSPropertyOp24
 70
     1
102
RTVSPropertyOp25
 70
     1
102
RTVSPropertyOp26
 70
     1
102
RTVSPropertyOp27
 70
     1
102
RTVSPropertyOp28
 70
     1
102
RTVSPropertyOp29
 70
     1
102
RTVSPropertyOp30
 70
     1
102
RTVSPropertyOp31
 70
     1
102
RTVSPropertyOp32
 70
     1
102
RTVSPropertyOp33
 70
     1
102
RTVSPropertyOp34
 70
     1
102
RTVSPropertyOp35
 70
     1
102
RTVSPropertyOp36
 70
     1
102
RTVSPropertyOp37
 70
     1
102
RTVSPropertyOp38
 70
     1
102
RTVSPropertyOp39
 70
     1
102
RTVSPropertyOp40
 70
     1
102
RTVSPropertyOp41
 70
     1
102
RTVSPropertyOp42
 70
     1
102
RTVSPropertyOp43
 70
     1
102
RTVSPropertyOp44
 70
     1
102
RTVSPropertyOp45
 70
     1
102
RTVSPropertyOp46
 70
     1
102
RTVSPropertyOp47
 70
     1
102
RTVSPropertyOp48
 70
     1
102
RTVSPropertyOp49
 70
     1
102
RTVSPropertyOp50
 70
     1
102
RTVSPropertyOp51
 70
     0
102
RTVSPropertyOp52
 70
     0
102
RTVSPropertyOp53
 70
     1
102
RTVSPropertyOp54
 70
     1
102
RTVSPropertyOp55
 70
     1
102
RTVSPropertyOp56
 70
     1
102
RTVSPropertyOp57
 70
     1
102
RTVSPost2010Prop28
280
     0
102
RTVSPost2010PropOp28
 70
     1
102
RTVSPost2010Prop29
280
     1
102
RTVSPost2010PropOp29
 70
     1
102
RTVSPost2010Prop30
280
     1
102
RTVSPost2010PropOp30
 70
     1
102
RTVSPost2010Prop31
280
     0
102
RTVSPost2010PropOp31
 70
     1
102
RTVSPost2010Prop32
280
     0
102
RTVSPost2010PropOp32
 70
     1
102
RTVSPost2010Prop33
280
     0
102
RTVSPost2010PropOp33
 70
     1
102
RTVSPost2010Prop34
280
     0
102
RTVSPost2010PropOp34
 70
     1
102
RTVSPost2010Prop35
280
     0
102
RTVSPost2010PropOp35
 70
     1
102
RTVSPost2010Prop36
280
     0
102
RTVSPost2010PropOp36
 70
     1
102
RTVSPost2010Prop37
 90
       50
102
RTVSPost2010PropOp37
 70
     1
102
RTVSPost2010Prop38
140
0.0
102
RTVSPost2010PropOp38
 70
     1
102
RTVSPost2010Prop39
140
1.0
102
RTVSPost2010PropOp39
 70
     1
102
RTVSPost2010Prop40
 90
        0
102
RTVSPost2010PropOp40
 70
     1
102
RTVSPost2010Prop41ColorIndex
 90
       18
102
RTVSPost2010Prop41ColorRGB
 90
        0
102
RTVSPost2010PropOp41
 70
     1
102
RTVSPost2010Prop42
 90
       50
102
RTVSPost2010PropOp42
 70
     1
102
RTVSPost2010Prop43
 90
        3
102
RTVSPost2010PropOp43
 70
     1
102
RTVSPost2010Prop44ColorIndex
 90
        5
102
RTVSPost2010Prop44ColorRGB
 90
      255
102
RTVSPost2010PropOp44
 70
     1
102
RTVSPost2010Prop45
280
     0
102
RTVSPost2010PropOp45
 70
     1
102
RTVSPost2010Prop46
 90
       50
102
RTVSPost2010PropOp46
 70
     1
102
RTVSPost2010Prop47
 90
       50
102
RTVSPost2010PropOp47
 70
     1
102
RTVSPost2010Prop48
 90
       50
102
RTVSPost2010PropOp48
 70
     1
102
RTVSPost2010Prop49
280
     0
102
RTVSPost2010PropOp49
 70
     1
102
RTVSPost2010Prop50
 90
       50
102
RTVSPost2010PropOp50
 70
     1
102
RTVSPost2010Prop51ColorIndex
 90
      256
102
RTVSPost2010Prop51ColorRGB
 90
-16777216
102
RTVSPost2010PropOp51
 70
     0
102
RTVSPost2010Prop52
140
1.0
102
RTVSPost2010PropOp52
 70
     0
102
RTVSPost2010Prop53
 90
        2
102
RTVSPost2010PropOp53
 70
     1
102
RTVSPost2010Prop54
  1
strokes_ogs.tif
102
RTVSPost2010PropOp54
 70
     1
102
RTVSPost2010Prop55
280
     0
102
RTVSPost2010PropOp55
 70
     1
102
RTVSPost2010Prop56
140
1.0
102
RTVSPost2010PropOp56
 70
     1
102
RTVSPost2010Prop57
140
1.0
102
RTVSPost2010PropOp57
 70
     1
  0
XRECORD
  5
1D0
102
{ACAD_REACTORS
330
1CF
102
}
330
1CF
100
AcDbXrecord
280
     1
102
RTVSPropertyOp0
 70
     1
102
RTVSPropertyOp1
 70
     1
102
RTVSPropertyOp2
 70
     1
102
RTVSPropertyOp3
 70
     1
102
RTVSPropertyOp4
 70
     1
102
RTVSPropertyOp5
 70
     1
102
RTVSPropertyOp6
 70
     1
102
RTVSPropertyOp7
 70
     1
102
RTVSPropertyOp8
 70
     1
102
RTVSPropertyOp9
 70
     1
102
RTVSPropertyOp10
 70
     1
102
RTVSPropertyOp11
 70
     1
102
RTVSPropertyOp12
 70
     1
102
RTVSPropertyOp13
 70
     1
102
RTVSPropertyOp14
 70
     1
102
RTVSPropertyOp15
 70
     1
102
RTVSPropertyOp16
 70
     1
102
RTVSPropertyOp17
 70
     1
102
RTVSPropertyOp18
 70
     1
102
RTVSPropertyOp19
 70
     1
102
RTVSPropertyOp20
 70
     1
102
RTVSPropertyOp21
 70
     1
102
RTVSPropertyOp22
 70
     1
102
RTVSPropertyOp23
 70
     1
102
RTVSPropertyOp24
 70
     1
102
RTVSPropertyOp25
 70
     1
102
RTVSPropertyOp26
 70
     1
102
RTVSPropertyOp27
 70
     1
102
RTVSPropertyOp28
 70
     1
102
RTVSPropertyOp29
 70
     1
102
RTVSPropertyOp30
 70
     1
102
RTVSPropertyOp31
 70
     1
102
RTVSPropertyOp32
 70
     1
102
RTVSPropertyOp33
 70
     1
102
RTVSPropertyOp34
 70
     1
102
RTVSPropertyOp35
 70
     1
102
RTVSPropertyOp36
 70
     1
102
RTVSPropertyOp37
 70
     1
102
RTVSPropertyOp38
 70
     1
102
RTVSPropertyOp39
 70
     1
102
RTVSPropertyOp40
 70
     1
102
RTVSPropertyOp41
 70
     1
102
RTVSPropertyOp42
 70
     1
102
RTVSPropertyOp43
 70
     1
102
RTVSPropertyOp44
 70
     1
102
RTVSPropertyOp45
 70
     1
102
RTVSPropertyOp46
 70
     1
102
RTVSPropertyOp47
 70
     1
102
RTVSPropertyOp48
 70
     1
102
RTVSPropertyOp49
 70
     1
102
RTVSPropertyOp50
 70
     1
102
RTVSPropertyOp51
 70
     0
102
RTVSPropertyOp52
 70
     0
102
RTVSPropertyOp53
 70
     1
102
RTVSPropertyOp54
 70
     1
102
RTVSPropertyOp55
 70
     1
102
RTVSPropertyOp56
 70
     1
102
RTVSPropertyOp57
 70
     1
102
RTVSPost2010Prop28
280
     0
102
RTVSPost2010PropOp28
 70
     1
102
RTVSPost2010Prop29
280
     1
102
RTVSPost2010PropOp29
 70
     1
102
RTVSPost2010Prop30
280
     1
102
RTVSPost2010PropOp30
 70
     1
102
RTVSPost2010Prop31
280
     0
102
RTVSPost2010PropOp31
 70
     1
102
RTVSPost2010Prop32
280
     0
102
RTVSPost2010PropOp32
 70
     1
102
RTVSPost2010Prop33
280
     0
102
RTVSPost2010PropOp33
 70
     1
102
RTVSPost2010Prop34
280
     0
102
RTVSPost2010PropOp34
 70
     1
102
RTVSPost2010Prop35
280
     0
102
RTVSPost2010PropOp35
 70
     1
102
RTVSPost2010Prop36
280
     0
102
RTVSPost2010PropOp36
 70
     1
102
RTVSPost2010Prop37
 90
       50
102
RTVSPost2010PropOp37
 70
     1
102
RTVSPost2010Prop38
140
0.0
102
RTVSPost2010PropOp38
 70
     1
102
RTVSPost2010Prop39
140
1.0
102
RTVSPost2010PropOp39
 70
     1
102
RTVSPost2010Prop40
 90
        0
102
RTVSPost2010PropOp40
 70
     1
102
RTVSPost2010Prop41ColorIndex
 90
       18
102
RTVSPost2010Prop41ColorRGB
 90
        0
102
RTVSPost2010PropOp41
 70
     1
102
RTVSPost2010Prop42
 90
       50
102
RTVSPost2010PropOp42
 70
     1
102
RTVSPost2010Prop43
 90
        3
102
RTVSPost2010PropOp43
 70
     1
102
RTVSPost2010Prop44ColorIndex
 90
        5
102
RTVSPost2010Prop44ColorRGB
 90
      255
102
RTVSPost2010PropOp44
 70
     1
102
RTVSPost2010Prop45
280
     0
102
RTVSPost2010PropOp45
 70
     1
102
RTVSPost2010Prop46
 90
       50
102
RTVSPost2010PropOp46
 70
     1
102
RTVSPost2010Prop47
 90
       50
102
RTVSPost2010PropOp47
 70
     1
102
RTVSPost2010Prop48
 90
       50
102
RTVSPost2010PropOp48
 70
     1
102
RTVSPost2010Prop49
280
     0
102
RTVSPost2010PropOp49
 70
     1
102
RTVSPost2010Prop50
 90
       50
102
RTVSPost2010PropOp50
 70
     1
102
RTVSPost2010Prop51ColorIndex
 90
      256
102
RTVSPost2010Prop51ColorRGB
 90
-16777216
102
RTVSPost2010PropOp51
 70
     0
102
RTVSPost2010Prop52
140
1.0
102
RTVSPost2010PropOp52
 70
     0
102
RTVSPost2010Prop53
 90
        2
102
RTVSPost2010PropOp53
 70
     1
102
RTVSPost2010Prop54
  1
strokes_ogs.tif
102
RTVSPost2010PropOp54
 70
     1
102
RTVSPost2010Prop55
280
     0
102
RTVSPost2010PropOp55
 70
     1
102
RTVSPost2010Prop56
140
1.0
102
RTVSPost2010PropOp56
 70
     1
102
RTVSPost2010Prop57
140
1.0
102
RTVSPost2010PropOp57
 70
     1
  0
XRECORD
  5
1D2
102
{ACAD_REACTORS
330
1D1
102
}
330
1D1
100
AcDbXrecord
280
     1
102
RTVSPropertyOp0
 70
     1
102
RTVSPropertyOp1
 70
     1
102
RTVSPropertyOp2
 70
     1
102
RTVSPropertyOp3
 70
     1
102
RTVSPropertyOp4
 70
     1
102
RTVSPropertyOp5
 70
     1
102
RTVSPropertyOp6
 70
     1
102
RTVSPropertyOp7
 70
     1
102
RTVSPropertyOp8
 70
     1
102
RTVSPropertyOp9
 70
     1
102
RTVSPropertyOp10
 70
     1
102
RTVSPropertyOp11
 70
     1
102
RTVSPropertyOp12
 70
     1
102
RTVSPropertyOp13
 70
     1
102
RTVSPropertyOp14
 70
     1
102
RTVSPropertyOp15
 70
     1
102
RTVSPropertyOp16
 70
     1
102
RTVSPropertyOp17
 70
     1
102
RTVSPropertyOp18
 70
     1
102
RTVSPropertyOp19
 70
     1
102
RTVSPropertyOp20
 70
     1
102
RTVSPropertyOp21
 70
     1
102
RTVSPropertyOp22
 70
     1
102
RTVSPropertyOp23
 70
     1
102
RTVSPropertyOp24
 70
     1
102
RTVSPropertyOp25
 70
     1
102
RTVSPropertyOp26
 70
     1
102
RTVSPropertyOp27
 70
     1
102
RTVSPropertyOp28
 70
     1
102
RTVSPropertyOp29
 70
     1
102
RTVSPropertyOp30
 70
     1
102
RTVSPropertyOp31
 70
     1
102
RTVSPropertyOp32
 70
     1
102
RTVSPropertyOp33
 70
     1
102
RTVSPropertyOp34
 70
     1
102
RTVSPropertyOp35
 70
     1
102
RTVSPropertyOp36
 70
     1
102
RTVSPropertyOp37
 70
     1
102
RTVSPropertyOp38
 70
     1
102
RTVSPropertyOp39
 70
     1
102
RTVSPropertyOp40
 70
     1
102
RTVSPropertyOp41
 70
     1
102
RTVSPropertyOp42
 70
     1
102
RTVSPropertyOp43
 70
     1
102
RTVSPropertyOp44
 70
     1
102
RTVSPropertyOp45
 70
     1
102
RTVSPropertyOp46
 70
     1
102
RTVSPropertyOp47
 70
     1
102
RTVSPropertyOp48
 70
     1
102
RTVSPropertyOp49
 70
     1
102
RTVSPropertyOp50
 70
     1
102
RTVSPropertyOp51
 70
     0
102
RTVSPropertyOp52
 70
     0
102
RTVSPropertyOp53
 70
     1
102
RTVSPropertyOp54
 70
     1
102
RTVSPropertyOp55
 70
     1
102
RTVSPropertyOp56
 70
     1
102
RTVSPropertyOp57
 70
     1
102
RTVSPost2010Prop28
280
     0
102
RTVSPost2010PropOp28
 70
     1
102
RTVSPost2010Prop29
280
     1
102
RTVSPost2010PropOp29
 70
     1
102
RTVSPost2010Prop30
280
     1
102
RTVSPost2010PropOp30
 70
     1
102
RTVSPost2010Prop31
280
     0
102
RTVSPost2010PropOp31
 70
     1
102
RTVSPost2010Prop32
280
     0
102
RTVSPost2010PropOp32
 70
     1
102
RTVSPost2010Prop33
280
     0
102
RTVSPost2010PropOp33
 70
     1
102
RTVSPost2010Prop34
280
     0
102
RTVSPost2010PropOp34
 70
     1
102
RTVSPost2010Prop35
280
     0
102
RTVSPost2010PropOp35
 70
     1
102
RTVSPost2010Prop36
280
     0
102
RTVSPost2010PropOp36
 70
     1
102
RTVSPost2010Prop37
 90
       50
102
RTVSPost2010PropOp37
 70
     1
102
RTVSPost2010Prop38
140
0.0
102
RTVSPost2010PropOp38
 70
     1
102
RTVSPost2010Prop39
140
1.0
102
RTVSPost2010PropOp39
 70
     1
102
RTVSPost2010Prop40
 90
        0
102
RTVSPost2010PropOp40
 70
     1
102
RTVSPost2010Prop41ColorIndex
 90
       18
102
RTVSPost2010Prop41ColorRGB
 90
        0
102
RTVSPost2010PropOp41
 70
     1
102
RTVSPost2010Prop42
 90
       50
102
RTVSPost2010PropOp42
 70
     1
102
RTVSPost2010Prop43
 90
        3
102
RTVSPost2010PropOp43
 70
     1
102
RTVSPost2010Prop44ColorIndex
 90
        5
102
RTVSPost2010Prop44ColorRGB
 90
      255
102
RTVSPost2010PropOp44
 70
     1
102
RTVSPost2010Prop45
280
     0
102
RTVSPost2010PropOp45
 70
     1
102
RTVSPost2010Prop46
 90
       50
102
RTVSPost2010PropOp46
 70
     1
102
RTVSPost2010Prop47
 90
       50
102
RTVSPost2010PropOp47
 70
     1
102
RTVSPost2010Prop48
 90
       50
102
RTVSPost2010PropOp48
 70
     1
102
RTVSPost2010Prop49
280
     0
102
RTVSPost2010PropOp49
 70
     1
102
RTVSPost2010Prop50
 90
       50
102
RTVSPost2010PropOp50
 70
     1
102
RTVSPost2010Prop51ColorIndex
 90
      256
102
RTVSPost2010Prop51ColorRGB
 90
-16777216
102
RTVSPost2010PropOp51
 70
     0
102
RTVSPost2010Prop52
140
1.0
102
RTVSPost2010PropOp52
 70
     0
102
RTVSPost2010Prop53
 90
        2
102
RTVSPost2010PropOp53
 70
     1
102
RTVSPost2010Prop54
  1
strokes_ogs.tif
102
RTVSPost2010PropOp54
 70
     1
102
RTVSPost2010Prop55
280
     0
102
RTVSPost2010PropOp55
 70
     1
102
RTVSPost2010Prop56
140
1.0
102
RTVSPost2010PropOp56
 70
     1
102
RTVSPost2010Prop57
140
1.0
102
RTVSPost2010PropOp57
 70
     1
  0
XRECORD
  5
1C2
102
{ACAD_REACTORS
330
1C1
102
}
330
1C1
100
AcDbXrecord
280
     1
102
RTVSPropertyOp0
 70
     1
102
RTVSPropertyOp1
 70
     1
102
RTVSPropertyOp2
 70
     1
102
RTVSPropertyOp3
 70
     1
102
RTVSPropertyOp4
 70
     1
102
RTVSPropertyOp5
 70
     1
102
RTVSPropertyOp6
 70
     1
102
RTVSPropertyOp7
 70
     1
102
RTVSPropertyOp8
 70
     1
102
RTVSPropertyOp9
 70
     1
102
RTVSPropertyOp10
 70
     1
102
RTVSPropertyOp11
 70
     1
102
RTVSPropertyOp12
 70
     1
102
RTVSPropertyOp13
 70
     1
102
RTVSPropertyOp14
 70
     1
102
RTVSPropertyOp15
 70
     1
102
RTVSPropertyOp16
 70
     1
102
RTVSPropertyOp17
 70
     1
102
RTVSPropertyOp18
 70
     1
102
RTVSPropertyOp19
 70
     1
102
RTVSPropertyOp20
 70
     1
102
RTVSPropertyOp21
 70
     1
102
RTVSPropertyOp22
 70
     1
102
RTVSPropertyOp23
 70
     1
102
RTVSPropertyOp24
 70
     1
102
RTVSPropertyOp25
 70
     1
102
RTVSPropertyOp26
 70
     1
102
RTVSPropertyOp27
 70
     1
102
RTVSPropertyOp28
 70
     1
102
RTVSPropertyOp29
 70
     1
102
RTVSPropertyOp30
 70
     1
102
RTVSPropertyOp31
 70
     1
102
RTVSPropertyOp32
 70
     1
102
RTVSPropertyOp33
 70
     1
102
RTVSPropertyOp34
 70
     1
102
RTVSPropertyOp35
 70
     1
102
RTVSPropertyOp36
 70
     1
102
RTVSPropertyOp37
 70
     1
102
RTVSPropertyOp38
 70
     1
102
RTVSPropertyOp39
 70
     1
102
RTVSPropertyOp40
 70
     1
102
RTVSPropertyOp41
 70
     1
102
RTVSPropertyOp42
 70
     1
102
RTVSPropertyOp43
 70
     1
102
RTVSPropertyOp44
 70
     1
102
RTVSPropertyOp45
 70
     1
102
RTVSPropertyOp46
 70
     1
102
RTVSPropertyOp47
 70
     1
102
RTVSPropertyOp48
 70
     1
102
RTVSPropertyOp49
 70
     1
102
RTVSPropertyOp50
 70
     1
102
RTVSPropertyOp51
 70
     0
102
RTVSPropertyOp52
 70
     0
102
RTVSPropertyOp53
 70
     1
102
RTVSPropertyOp54
 70
     1
102
RTVSPropertyOp55
 70
     1
102
RTVSPropertyOp56
 70
     1
102
RTVSPropertyOp57
 70
     1
102
RTVSPost2010Prop28
280
     0
102
RTVSPost2010PropOp28
 70
     1
102
RTVSPost2010Prop29
280
     1
102
RTVSPost2010PropOp29
 70
     1
102
RTVSPost2010Prop30
280
     1
102
RTVSPost2010PropOp30
 70
     1
102
RTVSPost2010Prop31
280
     0
102
RTVSPost2010PropOp31
 70
     1
102
RTVSPost2010Prop32
280
     0
102
RTVSPost2010PropOp32
 70
     1
102
RTVSPost2010Prop33
280
     0
102
RTVSPost2010PropOp33
 70
     1
102
RTVSPost2010Prop34
280
     0
102
RTVSPost2010PropOp34
 70
     1
102
RTVSPost2010Prop35
280
     0
102
RTVSPost2010PropOp35
 70
     1
102
RTVSPost2010Prop36
280
     0
102
RTVSPost2010PropOp36
 70
     1
102
RTVSPost2010Prop37
 90
       50
102
RTVSPost2010PropOp37
 70
     1
102
RTVSPost2010Prop38
140
0.0
102
RTVSPost2010PropOp38
 70
     1
102
RTVSPost2010Prop39
140
1.0
102
RTVSPost2010PropOp39
 70
     1
102
RTVSPost2010Prop40
 90
        0
102
RTVSPost2010PropOp40
 70
     1
102
RTVSPost2010Prop41ColorIndex
 90
       18
102
RTVSPost2010Prop41ColorRGB
 90
        0
102
RTVSPost2010PropOp41
 70
     1
102
RTVSPost2010Prop42
 90
       50
102
RTVSPost2010PropOp42
 70
     1
102
RTVSPost2010Prop43
 90
        3
102
RTVSPost2010PropOp43
 70
     1
102
RTVSPost2010Prop44ColorIndex
 90
        5
102
RTVSPost2010Prop44ColorRGB
 90
      255
102
RTVSPost2010PropOp44
 70
     1
102
RTVSPost2010Prop45
280
     0
102
RTVSPost2010PropOp45
 70
     1
102
RTVSPost2010Prop46
 90
       50
102
RTVSPost2010PropOp46
 70
     1
102
RTVSPost2010Prop47
 90
       50
102
RTVSPost2010PropOp47
 70
     1
102
RTVSPost2010Prop48
 90
       50
102
RTVSPost2010PropOp48
 70
     1
102
RTVSPost2010Prop49
280
     0
102
RTVSPost2010PropOp49
 70
     1
102
RTVSPost2010Prop50
 90
       50
102
RTVSPost2010PropOp50
 70
     1
102
RTVSPost2010Prop51ColorIndex
 90
      256
102
RTVSPost2010Prop51ColorRGB
 90
-16777216
102
RTVSPost2010PropOp51
 70
     0
102
RTVSPost2010Prop52
140
1.0
102
RTVSPost2010PropOp52
 70
     0
102
RTVSPost2010Prop53
 90
        2
102
RTVSPost2010PropOp53
 70
     1
102
RTVSPost2010Prop54
  1
strokes_ogs.tif
102
RTVSPost2010PropOp54
 70
     1
102
RTVSPost2010Prop55
280
     0
102
RTVSPost2010PropOp55
 70
     1
102
RTVSPost2010Prop56
140
1.0
102
RTVSPost2010PropOp56
 70
     1
102
RTVSPost2010Prop57
140
1.0
102
RTVSPost2010PropOp57
 70
     1
  0
XRECORD
  5
1B4
102
{ACAD_REACTORS
330
1B3
102
}
330
1B3
100
AcDbXrecord
280
     1
102
RTVSPropertyOp0
 70
     1
102
RTVSPropertyOp1
 70
     1
102
RTVSPropertyOp2
 70
     1
102
RTVSPropertyOp3
 70
     1
102
RTVSPropertyOp4
 70
     1
102
RTVSPropertyOp5
 70
     1
102
RTVSPropertyOp6
 70
     1
102
RTVSPropertyOp7
 70
     1
102
RTVSPropertyOp8
 70
     1
102
RTVSPropertyOp9
 70
     1
102
RTVSPropertyOp10
 70
     1
102
RTVSPropertyOp11
 70
     1
102
RTVSPropertyOp12
 70
     1
102
RTVSPropertyOp13
 70
     1
102
RTVSPropertyOp14
 70
     1
102
RTVSPropertyOp15
 70
     1
102
RTVSPropertyOp16
 70
     1
102
RTVSPropertyOp17
 70
     1
102
RTVSPropertyOp18
 70
     1
102
RTVSPropertyOp19
 70
     1
102
RTVSPropertyOp20
 70
     1
102
RTVSPropertyOp21
 70
     1
102
RTVSPropertyOp22
 70
     1
102
RTVSPropertyOp23
 70
     1
102
RTVSPropertyOp24
 70
     1
102
RTVSPropertyOp25
 70
     1
102
RTVSPropertyOp26
 70
     1
102
RTVSPropertyOp27
 70
     1
102
RTVSPropertyOp28
 70
     1
102
RTVSPropertyOp29
 70
     1
102
RTVSPropertyOp30
 70
     1
102
RTVSPropertyOp31
 70
     1
102
RTVSPropertyOp32
 70
     1
102
RTVSPropertyOp33
 70
     1
102
RTVSPropertyOp34
 70
     1
102
RTVSPropertyOp35
 70
     1
102
RTVSPropertyOp36
 70
     1
102
RTVSPropertyOp37
 70
     1
102
RTVSPropertyOp38
 70
     1
102
RTVSPropertyOp39
 70
     1
102
RTVSPropertyOp40
 70
     1
102
RTVSPropertyOp41
 70
     1
102
RTVSPropertyOp42
 70
     1
102
RTVSPropertyOp43
 70
     1
102
RTVSPropertyOp44
 70
     1
102
RTVSPropertyOp45
 70
     1
102
RTVSPropertyOp46
 70
     1
102
RTVSPropertyOp47
 70
     1
102
RTVSPropertyOp48
 70
     1
102
RTVSPropertyOp49
 70
     1
102
RTVSPropertyOp50
 70
     1
102
RTVSPropertyOp51
 70
     0
102
RTVSPropertyOp52
 70
     0
102
RTVSPropertyOp53
 70
     1
102
RTVSPropertyOp54
 70
     1
102
RTVSPropertyOp55
 70
     1
102
RTVSPropertyOp56
 70
     1
102
RTVSPropertyOp57
 70
     1
102
RTVSPost2010Prop28
280
     0
102
RTVSPost2010PropOp28
 70
     1
102
RTVSPost2010Prop29
280
     1
102
RTVSPost2010PropOp29
 70
     1
102
RTVSPost2010Prop30
280
     1
102
RTVSPost2010PropOp30
 70
     1
102
RTVSPost2010Prop31
280
     0
102
RTVSPost2010PropOp31
 70
     1
102
RTVSPost2010Prop32
280
     0
102
RTVSPost2010PropOp32
 70
     1
102
RTVSPost2010Prop33
280
     0
102
RTVSPost2010PropOp33
 70
     1
102
RTVSPost2010Prop34
280
     0
102
RTVSPost2010PropOp34
 70
     1
102
RTVSPost2010Prop35
280
     0
102
RTVSPost2010PropOp35
 70
     1
102
RTVSPost2010Prop36
280
     0
102
RTVSPost2010PropOp36
 70
     1
102
RTVSPost2010Prop37
 90
       50
102
RTVSPost2010PropOp37
 70
     1
102
RTVSPost2010Prop38
140
0.0
102
RTVSPost2010PropOp38
 70
     1
102
RTVSPost2010Prop39
140
1.0
102
RTVSPost2010PropOp39
 70
     1
102
RTVSPost2010Prop40
 90
        0
102
RTVSPost2010PropOp40
 70
     1
102
RTVSPost2010Prop41ColorIndex
 90
       18
102
RTVSPost2010Prop41ColorRGB
 90
        0
102
RTVSPost2010PropOp41
 70
     1
102
RTVSPost2010Prop42
 90
       50
102
RTVSPost2010PropOp42
 70
     1
102
RTVSPost2010Prop43
 90
        3
102
RTVSPost2010PropOp43
 70
     1
102
RTVSPost2010Prop44ColorIndex
 90
        5
102
RTVSPost2010Prop44ColorRGB
 90
      255
102
RTVSPost2010PropOp44
 70
     1
102
RTVSPost2010Prop45
280
     0
102
RTVSPost2010PropOp45
 70
     1
102
RTVSPost2010Prop46
 90
       50
102
RTVSPost2010PropOp46
 70
     1
102
RTVSPost2010Prop47
 90
       50
102
RTVSPost2010PropOp47
 70
     1
102
RTVSPost2010Prop48
 90
       50
102
RTVSPost2010PropOp48
 70
     1
102
RTVSPost2010Prop49
280
     0
102
RTVSPost2010PropOp49
 70
     1
102
RTVSPost2010Prop50
 90
       50
102
RTVSPost2010PropOp50
 70
     1
102
RTVSPost2010Prop51ColorIndex
 90
      256
102
RTVSPost2010Prop51ColorRGB
 90
-16777216
102
RTVSPost2010PropOp51
 70
     0
102
RTVSPost2010Prop52
140
1.0
102
RTVSPost2010PropOp52
 70
     0
102
RTVSPost2010Prop53
 90
        2
102
RTVSPost2010PropOp53
 70
     1
102
RTVSPost2010Prop54
  1
strokes_ogs.tif
102
RTVSPost2010PropOp54
 70
     1
102
RTVSPost2010Prop55
280
     0
102
RTVSPost2010PropOp55
 70
     1
102
RTVSPost2010Prop56
140
1.0
102
RTVSPost2010PropOp56
 70
     1
102
RTVSPost2010Prop57
140
1.0
102
RTVSPost2010PropOp57
 70
     1
  0
XRECORD
  5
1D4
102
{ACAD_REACTORS
330
1D3
102
}
330
1D3
100
AcDbXrecord
280
     1
102
RTVSPropertyOp0
 70
     1
102
RTVSPropertyOp1
 70
     1
102
RTVSPropertyOp2
 70
     1
102
RTVSPropertyOp3
 70
     1
102
RTVSPropertyOp4
 70
     1
102
RTVSPropertyOp5
 70
     1
102
RTVSPropertyOp6
 70
     1
102
RTVSPropertyOp7
 70
     1
102
RTVSPropertyOp8
 70
     1
102
RTVSPropertyOp9
 70
     1
102
RTVSPropertyOp10
 70
     1
102
RTVSPropertyOp11
 70
     1
102
RTVSPropertyOp12
 70
     1
102
RTVSPropertyOp13
 70
     1
102
RTVSPropertyOp14
 70
     1
102
RTVSPropertyOp15
 70
     1
102
RTVSPropertyOp16
 70
     1
102
RTVSPropertyOp17
 70
     1
102
RTVSPropertyOp18
 70
     1
102
RTVSPropertyOp19
 70
     1
102
RTVSPropertyOp20
 70
     1
102
RTVSPropertyOp21
 70
     1
102
RTVSPropertyOp22
 70
     1
102
RTVSPropertyOp23
 70
     1
102
RTVSPropertyOp24
 70
     1
102
RTVSPropertyOp25
 70
     1
102
RTVSPropertyOp26
 70
     1
102
RTVSPropertyOp27
 70
     1
102
RTVSPropertyOp28
 70
     1
102
RTVSPropertyOp29
 70
     1
102
RTVSPropertyOp30
 70
     1
102
RTVSPropertyOp31
 70
     1
102
RTVSPropertyOp32
 70
     1
102
RTVSPropertyOp33
 70
     1
102
RTVSPropertyOp34
 70
     1
102
RTVSPropertyOp35
 70
     1
102
RTVSPropertyOp36
 70
     1
102
RTVSPropertyOp37
 70
     1
102
RTVSPropertyOp38
 70
     1
102
RTVSPropertyOp39
 70
     1
102
RTVSPropertyOp40
 70
     1
102
RTVSPropertyOp41
 70
     1
102
RTVSPropertyOp42
 70
     1
102
RTVSPropertyOp43
 70
     1
102
RTVSPropertyOp44
 70
     1
102
RTVSPropertyOp45
 70
     1
102
RTVSPropertyOp46
 70
     1
102
RTVSPropertyOp47
 70
     1
102
RTVSPropertyOp48
 70
     1
102
RTVSPropertyOp49
 70
     1
102
RTVSPropertyOp50
 70
     1
102
RTVSPropertyOp51
 70
     0
102
RTVSPropertyOp52
 70
     0
102
RTVSPropertyOp53
 70
     1
102
RTVSPropertyOp54
 70
     1
102
RTVSPropertyOp55
 70
     1
102
RTVSPropertyOp56
 70
     1
102
RTVSPropertyOp57
 70
     1
102
RTVSPost2010Prop28
280
     0
102
RTVSPost2010PropOp28
 70
     1
102
RTVSPost2010Prop29
280
     1
102
RTVSPost2010PropOp29
 70
     1
102
RTVSPost2010Prop30
280
     1
102
RTVSPost2010PropOp30
 70
     1
102
RTVSPost2010Prop31
280
     0
102
RTVSPost2010PropOp31
 70
     1
102
RTVSPost2010Prop32
280
     0
102
RTVSPost2010PropOp32
 70
     1
102
RTVSPost2010Prop33
280
     0
102
RTVSPost2010PropOp33
 70
     1
102
RTVSPost2010Prop34
280
     0
102
RTVSPost2010PropOp34
 70
     1
102
RTVSPost2010Prop35
280
     0
102
RTVSPost2010PropOp35
 70
     1
102
RTVSPost2010Prop36
280
     0
102
RTVSPost2010PropOp36
 70
     1
102
RTVSPost2010Prop37
 90
       50
102
RTVSPost2010PropOp37
 70
     1
102
RTVSPost2010Prop38
140
0.0
102
RTVSPost2010PropOp38
 70
     1
102
RTVSPost2010Prop39
140
1.0
102
RTVSPost2010PropOp39
 70
     1
102
RTVSPost2010Prop40
 90
        0
102
RTVSPost2010PropOp40
 70
     1
102
RTVSPost2010Prop41ColorIndex
 90
       18
102
RTVSPost2010Prop41ColorRGB
 90
        0
102
RTVSPost2010PropOp41
 70
     1
102
RTVSPost2010Prop42
 90
       50
102
RTVSPost2010PropOp42
 70
     1
102
RTVSPost2010Prop43
 90
        3
102
RTVSPost2010PropOp43
 70
     1
102
RTVSPost2010Prop44ColorIndex
 90
        5
102
RTVSPost2010Prop44ColorRGB
 90
      255
102
RTVSPost2010PropOp44
 70
     1
102
RTVSPost2010Prop45
280
     0
102
RTVSPost2010PropOp45
 70
     1
102
RTVSPost2010Prop46
 90
       50
102
RTVSPost2010PropOp46
 70
     1
102
RTVSPost2010Prop47
 90
       50
102
RTVSPost2010PropOp47
 70
     1
102
RTVSPost2010Prop48
 90
       50
102
RTVSPost2010PropOp48
 70
     1
102
RTVSPost2010Prop49
280
     0
102
RTVSPost2010PropOp49
 70
     1
102
RTVSPost2010Prop50
 90
       50
102
RTVSPost2010PropOp50
 70
     1
102
RTVSPost2010Prop51ColorIndex
 90
      256
102
RTVSPost2010Prop51ColorRGB
 90
-16777216
102
RTVSPost2010PropOp51
 70
     0
102
RTVSPost2010Prop52
140
1.0
102
RTVSPost2010PropOp52
 70
     0
102
RTVSPost2010Prop53
 90
        2
102
RTVSPost2010PropOp53
 70
     1
102
RTVSPost2010Prop54
  1
strokes_ogs.tif
102
RTVSPost2010PropOp54
 70
     1
102
RTVSPost2010Prop55
280
     0
102
RTVSPost2010PropOp55
 70
     1
102
RTVSPost2010Prop56
140
1.0
102
RTVSPost2010PropOp56
 70
     1
102
RTVSPost2010Prop57
140
1.0
102
RTVSPost2010PropOp57
 70
     1
  0
ENDSEC
  0
EOF
